ISO-10303-21;
HEADER;
/* Generated by software containing ST-Developer
 * from STEP Tools, Inc. (www.steptools.com) 
 */

FILE_DESCRIPTION(
/* description */ (''),
/* implementation_level */ '2;1');

FILE_NAME(
/* name */ 'FL-SHN50KF-57.stp',
/* time_stamp */ '2023-07-07T09:03:59+01:00',
/* author */ ('PaulJarvis'),
/* organization */ (''),
/* preprocessor_version */ 'ST-DEVELOPER v19.2',
/* originating_system */ 'Autodesk Inventor 2023',
/* authorisation */ '');

FILE_SCHEMA (('AUTOMOTIVE_DESIGN { 1 0 10303 214 3 1 1 }'));
ENDSEC;

DATA;
#10=MECHANICAL_DESIGN_GEOMETRIC_PRESENTATION_REPRESENTATION('',(#13),#249);
#11=SHAPE_REPRESENTATION_RELATIONSHIP('SRR','None',#256,#12);
#12=ADVANCED_BREP_SHAPE_REPRESENTATION('',(#14),#248);
#13=STYLED_ITEM('',(#265),#14);
#14=MANIFOLD_SOLID_BREP('Solid1',#129);
#15=CONICAL_SURFACE('',#157,33.7679491924311,1.30899693899575);
#16=LINE('',#222,#21);
#17=LINE('',#226,#22);
#18=LINE('',#233,#23);
#19=LINE('',#239,#24);
#20=LINE('',#245,#25);
#21=VECTOR('',#182,37.5);
#22=VECTOR('',#187,33.7679491924311);
#23=VECTOR('',#196,28.5);
#24=VECTOR('',#203,25.5);
#25=VECTOR('',#212,25.6);
#26=CYLINDRICAL_SURFACE('',#155,37.5);
#27=CYLINDRICAL_SURFACE('',#161,28.5);
#28=CYLINDRICAL_SURFACE('',#165,25.5);
#29=CYLINDRICAL_SURFACE('',#169,25.6);
#30=FACE_BOUND('',#44,.T.);
#31=FACE_BOUND('',#48,.T.);
#32=FACE_BOUND('',#51,.T.);
#33=FACE_BOUND('',#54,.T.);
#34=FACE_OUTER_BOUND('',#43,.T.);
#35=FACE_OUTER_BOUND('',#45,.T.);
#36=FACE_OUTER_BOUND('',#46,.T.);
#37=FACE_OUTER_BOUND('',#47,.T.);
#38=FACE_OUTER_BOUND('',#49,.T.);
#39=FACE_OUTER_BOUND('',#50,.T.);
#40=FACE_OUTER_BOUND('',#52,.T.);
#41=FACE_OUTER_BOUND('',#53,.T.);
#42=FACE_OUTER_BOUND('',#55,.T.);
#43=EDGE_LOOP('',(#88));
#44=EDGE_LOOP('',(#89));
#45=EDGE_LOOP('',(#90,#91,#92,#93));
#46=EDGE_LOOP('',(#94,#95,#96,#97));
#47=EDGE_LOOP('',(#98));
#48=EDGE_LOOP('',(#99));
#49=EDGE_LOOP('',(#100,#101,#102,#103));
#50=EDGE_LOOP('',(#104));
#51=EDGE_LOOP('',(#105));
#52=EDGE_LOOP('',(#106,#107,#108,#109));
#53=EDGE_LOOP('',(#110));
#54=EDGE_LOOP('',(#111));
#55=EDGE_LOOP('',(#112,#113,#114,#115));
#56=CIRCLE('',#153,37.5);
#57=CIRCLE('',#154,25.6);
#58=CIRCLE('',#156,37.5);
#59=CIRCLE('',#158,30.0358983848622);
#60=CIRCLE('',#160,28.5);
#61=CIRCLE('',#162,28.5);
#62=CIRCLE('',#164,25.5);
#63=CIRCLE('',#166,25.5);
#64=CIRCLE('',#168,25.6);
#65=VERTEX_POINT('',#215);
#66=VERTEX_POINT('',#217);
#67=VERTEX_POINT('',#220);
#68=VERTEX_POINT('',#224);
#69=VERTEX_POINT('',#228);
#70=VERTEX_POINT('',#231);
#71=VERTEX_POINT('',#235);
#72=VERTEX_POINT('',#238);
#73=VERTEX_POINT('',#242);
#74=EDGE_CURVE('',#65,#65,#56,.T.);
#75=EDGE_CURVE('',#66,#66,#57,.T.);
#76=EDGE_CURVE('',#67,#67,#58,.T.);
#77=EDGE_CURVE('',#67,#65,#16,.T.);
#78=EDGE_CURVE('',#68,#68,#59,.T.);
#79=EDGE_CURVE('',#68,#67,#17,.T.);
#80=EDGE_CURVE('',#69,#69,#60,.T.);
#81=EDGE_CURVE('',#70,#70,#61,.T.);
#82=EDGE_CURVE('',#70,#69,#18,.T.);
#83=EDGE_CURVE('',#71,#71,#62,.T.);
#84=EDGE_CURVE('',#71,#72,#19,.T.);
#85=EDGE_CURVE('',#72,#72,#63,.T.);
#86=EDGE_CURVE('',#73,#73,#64,.T.);
#87=EDGE_CURVE('',#73,#66,#20,.T.);
#88=ORIENTED_EDGE('',*,*,#74,.F.);
#89=ORIENTED_EDGE('',*,*,#75,.T.);
#90=ORIENTED_EDGE('',*,*,#76,.F.);
#91=ORIENTED_EDGE('',*,*,#77,.T.);
#92=ORIENTED_EDGE('',*,*,#74,.T.);
#93=ORIENTED_EDGE('',*,*,#77,.F.);
#94=ORIENTED_EDGE('',*,*,#78,.F.);
#95=ORIENTED_EDGE('',*,*,#79,.T.);
#96=ORIENTED_EDGE('',*,*,#76,.T.);
#97=ORIENTED_EDGE('',*,*,#79,.F.);
#98=ORIENTED_EDGE('',*,*,#78,.T.);
#99=ORIENTED_EDGE('',*,*,#80,.F.);
#100=ORIENTED_EDGE('',*,*,#81,.F.);
#101=ORIENTED_EDGE('',*,*,#82,.T.);
#102=ORIENTED_EDGE('',*,*,#80,.T.);
#103=ORIENTED_EDGE('',*,*,#82,.F.);
#104=ORIENTED_EDGE('',*,*,#81,.T.);
#105=ORIENTED_EDGE('',*,*,#83,.F.);
#106=ORIENTED_EDGE('',*,*,#83,.T.);
#107=ORIENTED_EDGE('',*,*,#84,.T.);
#108=ORIENTED_EDGE('',*,*,#85,.F.);
#109=ORIENTED_EDGE('',*,*,#84,.F.);
#110=ORIENTED_EDGE('',*,*,#86,.F.);
#111=ORIENTED_EDGE('',*,*,#85,.T.);
#112=ORIENTED_EDGE('',*,*,#86,.T.);
#113=ORIENTED_EDGE('',*,*,#87,.T.);
#114=ORIENTED_EDGE('',*,*,#75,.F.);
#115=ORIENTED_EDGE('',*,*,#87,.F.);
#116=PLANE('',#152);
#117=PLANE('',#159);
#118=PLANE('',#163);
#119=PLANE('',#167);
#120=ADVANCED_FACE('',(#34,#30),#116,.T.);
#121=ADVANCED_FACE('',(#35),#26,.T.);
#122=ADVANCED_FACE('',(#36),#15,.T.);
#123=ADVANCED_FACE('',(#37,#31),#117,.T.);
#124=ADVANCED_FACE('',(#38),#27,.T.);
#125=ADVANCED_FACE('',(#39,#32),#118,.T.);
#126=ADVANCED_FACE('',(#40),#28,.F.);
#127=ADVANCED_FACE('',(#41,#33),#119,.T.);
#128=ADVANCED_FACE('',(#42),#29,.F.);
#129=CLOSED_SHELL('',(#120,#121,#122,#123,#124,#125,#126,#127,#128));
#130=DERIVED_UNIT_ELEMENT(#133,1.);
#131=DERIVED_UNIT_ELEMENT(#251,-3.);
#132=DIMENSIONAL_EXPONENTS(0.,1.,0.,0.,0.,0.,0.);
#133=(
CONVERSION_BASED_UNIT('gram',#135)
MASS_UNIT()
NAMED_UNIT(#132)
);
#134=(
MASS_UNIT()
NAMED_UNIT(*)
SI_UNIT(.KILO.,.GRAM.)
);
#135=MASS_MEASURE_WITH_UNIT(MASS_MEASURE(0.001),#134);
#136=DERIVED_UNIT((#130,#131));
#137=MEASURE_REPRESENTATION_ITEM('density measure',
POSITIVE_RATIO_MEASURE(8.),#136);
#138=PROPERTY_DEFINITION_REPRESENTATION(#143,#140);
#139=PROPERTY_DEFINITION_REPRESENTATION(#144,#141);
#140=REPRESENTATION('material name',(#142),#248);
#141=REPRESENTATION('density',(#137),#248);
#142=DESCRIPTIVE_REPRESENTATION_ITEM('Stainless Steel AISI 304',
'Stainless Steel AISI 304');
#143=PROPERTY_DEFINITION('material property','material name',#258);
#144=PROPERTY_DEFINITION('material property','density of part',#258);
#145=DATE_TIME_ROLE('creation_date');
#146=APPLIED_DATE_AND_TIME_ASSIGNMENT(#147,#145,(#258));
#147=DATE_AND_TIME(#148,#149);
#148=CALENDAR_DATE(2017,7,2);
#149=LOCAL_TIME(0,0,0.,#150);
#150=COORDINATED_UNIVERSAL_TIME_OFFSET(0,0,.BEHIND.);
#151=AXIS2_PLACEMENT_3D('',#213,#170,#171);
#152=AXIS2_PLACEMENT_3D('',#214,#172,#173);
#153=AXIS2_PLACEMENT_3D('',#216,#174,#175);
#154=AXIS2_PLACEMENT_3D('',#218,#176,#177);
#155=AXIS2_PLACEMENT_3D('',#219,#178,#179);
#156=AXIS2_PLACEMENT_3D('',#221,#180,#181);
#157=AXIS2_PLACEMENT_3D('',#223,#183,#184);
#158=AXIS2_PLACEMENT_3D('',#225,#185,#186);
#159=AXIS2_PLACEMENT_3D('',#227,#188,#189);
#160=AXIS2_PLACEMENT_3D('',#229,#190,#191);
#161=AXIS2_PLACEMENT_3D('',#230,#192,#193);
#162=AXIS2_PLACEMENT_3D('',#232,#194,#195);
#163=AXIS2_PLACEMENT_3D('',#234,#197,#198);
#164=AXIS2_PLACEMENT_3D('',#236,#199,#200);
#165=AXIS2_PLACEMENT_3D('',#237,#201,#202);
#166=AXIS2_PLACEMENT_3D('',#240,#204,#205);
#167=AXIS2_PLACEMENT_3D('',#241,#206,#207);
#168=AXIS2_PLACEMENT_3D('',#243,#208,#209);
#169=AXIS2_PLACEMENT_3D('',#244,#210,#211);
#170=DIRECTION('axis',(0.,0.,1.));
#171=DIRECTION('refdir',(1.,0.,0.));
#172=DIRECTION('center_axis',(0.,-1.,0.));
#173=DIRECTION('ref_axis',(0.,0.,-1.));
#174=DIRECTION('center_axis',(0.,1.,0.));
#175=DIRECTION('ref_axis',(1.,0.,0.));
#176=DIRECTION('center_axis',(0.,1.,0.));
#177=DIRECTION('ref_axis',(1.,0.,0.));
#178=DIRECTION('center_axis',(0.,1.,0.));
#179=DIRECTION('ref_axis',(-1.,0.,0.));
#180=DIRECTION('center_axis',(0.,1.,0.));
#181=DIRECTION('ref_axis',(1.,0.,0.));
#182=DIRECTION('',(0.,-1.,0.));
#183=DIRECTION('center_axis',(0.,-1.,0.));
#184=DIRECTION('ref_axis',(-1.,0.,0.));
#185=DIRECTION('center_axis',(0.,1.,0.));
#186=DIRECTION('ref_axis',(1.,0.,0.));
#187=DIRECTION('',(0.965925826289069,-0.258819045102519,-1.18291797137867E-16));
#188=DIRECTION('center_axis',(0.,1.,0.));
#189=DIRECTION('ref_axis',(0.,0.,1.));
#190=DIRECTION('center_axis',(0.,1.,0.));
#191=DIRECTION('ref_axis',(1.,0.,0.));
#192=DIRECTION('center_axis',(0.,1.,0.));
#193=DIRECTION('ref_axis',(-1.,0.,0.));
#194=DIRECTION('center_axis',(0.,1.,0.));
#195=DIRECTION('ref_axis',(1.,0.,0.));
#196=DIRECTION('',(0.,-1.,0.));
#197=DIRECTION('center_axis',(0.,1.,0.));
#198=DIRECTION('ref_axis',(0.,0.,1.));
#199=DIRECTION('center_axis',(0.,1.,0.));
#200=DIRECTION('ref_axis',(1.,0.,0.));
#201=DIRECTION('center_axis',(0.,1.,0.));
#202=DIRECTION('ref_axis',(-1.,0.,0.));
#203=DIRECTION('',(0.,-1.,0.));
#204=DIRECTION('center_axis',(0.,1.,0.));
#205=DIRECTION('ref_axis',(1.,0.,0.));
#206=DIRECTION('center_axis',(0.,-1.,0.));
#207=DIRECTION('ref_axis',(0.,0.,-1.));
#208=DIRECTION('center_axis',(0.,1.,0.));
#209=DIRECTION('ref_axis',(1.,0.,0.));
#210=DIRECTION('center_axis',(0.,1.,0.));
#211=DIRECTION('ref_axis',(-1.,0.,0.));
#212=DIRECTION('',(0.,-1.,0.));
#213=CARTESIAN_POINT('',(0.,0.,0.));
#214=CARTESIAN_POINT('Origin',(-37.5,0.,0.));
#215=CARTESIAN_POINT('',(37.5,0.,-4.59242549680258E-15));
#216=CARTESIAN_POINT('Origin',(0.,0.,0.));
#217=CARTESIAN_POINT('',(25.6,0.,-3.13509580581722E-15));
#218=CARTESIAN_POINT('Origin',(0.,0.,0.));
#219=CARTESIAN_POINT('Origin',(0.,1.5,0.));
#220=CARTESIAN_POINT('',(37.5,3.,-4.59242549680258E-15));
#221=CARTESIAN_POINT('Origin',(0.,3.,0.));
#222=CARTESIAN_POINT('',(37.5,1.5,-4.59242549680258E-15));
#223=CARTESIAN_POINT('Origin',(0.,4.,0.));
#224=CARTESIAN_POINT('',(30.0358983848622,5.,-3.67833668165366E-15));
#225=CARTESIAN_POINT('Origin',(0.,5.,0.));
#226=CARTESIAN_POINT('',(33.7679491924311,4.,-4.13538108922812E-15));
#227=CARTESIAN_POINT('Origin',(-28.5,5.,0.));
#228=CARTESIAN_POINT('',(28.5,5.,-3.49024337756996E-15));
#229=CARTESIAN_POINT('Origin',(0.,5.,0.));
#230=CARTESIAN_POINT('Origin',(0.,17.5,0.));
#231=CARTESIAN_POINT('',(28.5,30.,-3.49024337756996E-15));
#232=CARTESIAN_POINT('Origin',(0.,30.,0.));
#233=CARTESIAN_POINT('',(28.5,17.5,-3.49024337756996E-15));
#234=CARTESIAN_POINT('Origin',(-25.5,30.,0.));
#235=CARTESIAN_POINT('',(25.5,30.,-3.12284933782575E-15));
#236=CARTESIAN_POINT('Origin',(0.,30.,0.));
#237=CARTESIAN_POINT('Origin',(0.,16.25,0.));
#238=CARTESIAN_POINT('',(25.5,2.5,-3.12284933782575E-15));
#239=CARTESIAN_POINT('',(25.5,16.25,-3.12284933782575E-15));
#240=CARTESIAN_POINT('Origin',(0.,2.5,0.));
#241=CARTESIAN_POINT('Origin',(-25.6,2.5,0.));
#242=CARTESIAN_POINT('',(25.6,2.5,-3.13509580581722E-15));
#243=CARTESIAN_POINT('Origin',(0.,2.5,0.));
#244=CARTESIAN_POINT('Origin',(0.,1.25,0.));
#245=CARTESIAN_POINT('',(25.6,1.25,-3.13509580581722E-15));
#246=UNCERTAINTY_MEASURE_WITH_UNIT(LENGTH_MEASURE(0.01),#250,
'DISTANCE_ACCURACY_VALUE',
'Maximum model space distance between geometric entities at asserted c
onnectivities');
#247=UNCERTAINTY_MEASURE_WITH_UNIT(LENGTH_MEASURE(0.01),#250,
'DISTANCE_ACCURACY_VALUE',
'Maximum model space distance between geometric entities at asserted c
onnectivities');
#248=(
GEOMETRIC_REPRESENTATION_CONTEXT(3)
GLOBAL_UNCERTAINTY_ASSIGNED_CONTEXT((#246))
GLOBAL_UNIT_ASSIGNED_CONTEXT((#250,#252,#253))
REPRESENTATION_CONTEXT('','3D')
);
#249=(
GEOMETRIC_REPRESENTATION_CONTEXT(3)
GLOBAL_UNCERTAINTY_ASSIGNED_CONTEXT((#247))
GLOBAL_UNIT_ASSIGNED_CONTEXT((#250,#252,#253))
REPRESENTATION_CONTEXT('','3D')
);
#250=(
LENGTH_UNIT()
NAMED_UNIT(*)
SI_UNIT(.MILLI.,.METRE.)
);
#251=(
LENGTH_UNIT()
NAMED_UNIT(*)
SI_UNIT(.CENTI.,.METRE.)
);
#252=(
NAMED_UNIT(*)
PLANE_ANGLE_UNIT()
SI_UNIT($,.RADIAN.)
);
#253=(
NAMED_UNIT(*)
SI_UNIT($,.STERADIAN.)
SOLID_ANGLE_UNIT()
);
#254=SHAPE_DEFINITION_REPRESENTATION(#255,#256);
#255=PRODUCT_DEFINITION_SHAPE('',$,#258);
#256=SHAPE_REPRESENTATION('',(#151),#248);
#257=PRODUCT_DEFINITION_CONTEXT('part definition',#262,'design');
#258=PRODUCT_DEFINITION('FL-SHN50KF-57','FL-SHN50KF-57',#259,#257);
#259=PRODUCT_DEFINITION_FORMATION('',$,#264);
#260=PRODUCT_RELATED_PRODUCT_CATEGORY('FL-SHN50KF-57','FL-SHN50KF-57',(#264));
#261=APPLICATION_PROTOCOL_DEFINITION('international standard',
'automotive_design',2009,#262);
#262=APPLICATION_CONTEXT(
'Core Data for Automotive Mechanical Design Process');
#263=PRODUCT_CONTEXT('part definition',#262,'mechanical');
#264=PRODUCT('FL-SHN50KF-57','FL-SHN50KF-57',$,(#263));
#265=PRESENTATION_STYLE_ASSIGNMENT((#266));
#266=SURFACE_STYLE_USAGE(.BOTH.,#269);
#267=SURFACE_STYLE_RENDERING_WITH_PROPERTIES($,#273,(#268));
#268=SURFACE_STYLE_TRANSPARENT(0.);
#269=SURFACE_SIDE_STYLE('',(#270,#267));
#270=SURFACE_STYLE_FILL_AREA(#271);
#271=FILL_AREA_STYLE('',(#272));
#272=FILL_AREA_STYLE_COLOUR('',#273);
#273=COLOUR_RGB('',0.745098039215686,0.737254901960784,0.729411764705882);
ENDSEC;
END-ISO-10303-21;
