ISO-10303-21;
HEADER;
/* Generated by software containing ST-Developer
 * from STEP Tools, Inc. (www.steptools.com) 
 */

FILE_DESCRIPTION(
/* description */ (''),
/* implementation_level */ '2;1');

FILE_NAME(
/* name */ 'FL-SHN40KF-38.stp',
/* time_stamp */ '2023-06-16T14:06:38+01:00',
/* author */ ('PaulJarvis'),
/* organization */ (''),
/* preprocessor_version */ 'ST-DEVELOPER v19.2',
/* originating_system */ 'Autodesk Inventor 2023',
/* authorisation */ '');

FILE_SCHEMA (('AUTOMOTIVE_DESIGN { 1 0 10303 214 3 1 1 }'));
ENDSEC;

DATA;
#10=MECHANICAL_DESIGN_GEOMETRIC_PRESENTATION_REPRESENTATION('',(#13),#276);
#11=SHAPE_REPRESENTATION_RELATIONSHIP('SRR','None',#283,#12);
#12=ADVANCED_BREP_SHAPE_REPRESENTATION('',(#14),#275);
#13=STYLED_ITEM('',(#292),#14);
#14=MANIFOLD_SOLID_BREP('Solid1',#139);
#15=FACE_BOUND('',#45,.T.);
#16=FACE_BOUND('',#48,.T.);
#17=PLANE('',#179);
#18=PLANE('',#183);
#19=CYLINDRICAL_SURFACE('',#171,19.05);
#20=CYLINDRICAL_SURFACE('',#177,27.5);
#21=CYLINDRICAL_SURFACE('',#181,17.5);
#22=LINE('',#247,#26);
#23=LINE('',#254,#27);
#24=LINE('',#263,#28);
#25=LINE('',#270,#29);
#26=VECTOR('',#200,23.275);
#27=VECTOR('',#209,19.05);
#28=VECTOR('',#220,27.5);
#29=VECTOR('',#229,17.5);
#30=CONICAL_SURFACE('',#168,23.275,1.30899693899575);
#31=FACE_OUTER_BOUND('',#39,.T.);
#32=FACE_OUTER_BOUND('',#40,.T.);
#33=FACE_OUTER_BOUND('',#41,.T.);
#34=FACE_OUTER_BOUND('',#42,.T.);
#35=FACE_OUTER_BOUND('',#43,.T.);
#36=FACE_OUTER_BOUND('',#44,.T.);
#37=FACE_OUTER_BOUND('',#46,.T.);
#38=FACE_OUTER_BOUND('',#47,.T.);
#39=EDGE_LOOP('',(#93,#94,#95,#96,#97,#98));
#40=EDGE_LOOP('',(#99,#100,#101,#102,#103,#104));
#41=EDGE_LOOP('',(#105,#106,#107,#108,#109));
#42=EDGE_LOOP('',(#110,#111,#112,#113,#114,#115));
#43=EDGE_LOOP('',(#116,#117,#118,#119,#120));
#44=EDGE_LOOP('',(#121));
#45=EDGE_LOOP('',(#122));
#46=EDGE_LOOP('',(#123,#124,#125,#126));
#47=EDGE_LOOP('',(#127));
#48=EDGE_LOOP('',(#128));
#49=CIRCLE('',#163,19.4205904774487);
#50=CIRCLE('',#164,0.5);
#51=CIRCLE('',#165,19.05);
#52=CIRCLE('',#166,19.05);
#53=CIRCLE('',#167,19.4205904774487);
#54=CIRCLE('',#169,27.1294095225513);
#55=CIRCLE('',#170,27.1294095225513);
#56=CIRCLE('',#172,19.05);
#57=CIRCLE('',#174,0.5);
#58=CIRCLE('',#175,27.5);
#59=CIRCLE('',#176,27.5);
#60=CIRCLE('',#178,27.5);
#61=CIRCLE('',#180,17.5);
#62=CIRCLE('',#182,17.5);
#63=VERTEX_POINT('',#236);
#64=VERTEX_POINT('',#237);
#65=VERTEX_POINT('',#239);
#66=VERTEX_POINT('',#241);
#67=VERTEX_POINT('',#246);
#68=VERTEX_POINT('',#248);
#69=VERTEX_POINT('',#252);
#70=VERTEX_POINT('',#256);
#71=VERTEX_POINT('',#258);
#72=VERTEX_POINT('',#262);
#73=VERTEX_POINT('',#266);
#74=VERTEX_POINT('',#269);
#75=EDGE_CURVE('',#63,#64,#49,.T.);
#76=EDGE_CURVE('',#64,#65,#50,.T.);
#77=EDGE_CURVE('',#65,#66,#51,.T.);
#78=EDGE_CURVE('',#66,#65,#52,.T.);
#79=EDGE_CURVE('',#64,#63,#53,.T.);
#80=EDGE_CURVE('',#63,#67,#22,.T.);
#81=EDGE_CURVE('',#68,#67,#54,.T.);
#82=EDGE_CURVE('',#67,#68,#55,.T.);
#83=EDGE_CURVE('',#69,#69,#56,.T.);
#84=EDGE_CURVE('',#69,#66,#23,.T.);
#85=EDGE_CURVE('',#68,#70,#57,.T.);
#86=EDGE_CURVE('',#70,#71,#58,.T.);
#87=EDGE_CURVE('',#71,#70,#59,.T.);
#88=EDGE_CURVE('',#71,#72,#24,.T.);
#89=EDGE_CURVE('',#72,#72,#60,.T.);
#90=EDGE_CURVE('',#73,#73,#61,.T.);
#91=EDGE_CURVE('',#73,#74,#25,.T.);
#92=EDGE_CURVE('',#74,#74,#62,.T.);
#93=ORIENTED_EDGE('',*,*,#75,.T.);
#94=ORIENTED_EDGE('',*,*,#76,.T.);
#95=ORIENTED_EDGE('',*,*,#77,.T.);
#96=ORIENTED_EDGE('',*,*,#78,.T.);
#97=ORIENTED_EDGE('',*,*,#76,.F.);
#98=ORIENTED_EDGE('',*,*,#79,.T.);
#99=ORIENTED_EDGE('',*,*,#75,.F.);
#100=ORIENTED_EDGE('',*,*,#80,.T.);
#101=ORIENTED_EDGE('',*,*,#81,.F.);
#102=ORIENTED_EDGE('',*,*,#82,.F.);
#103=ORIENTED_EDGE('',*,*,#80,.F.);
#104=ORIENTED_EDGE('',*,*,#79,.F.);
#105=ORIENTED_EDGE('',*,*,#83,.F.);
#106=ORIENTED_EDGE('',*,*,#84,.T.);
#107=ORIENTED_EDGE('',*,*,#77,.F.);
#108=ORIENTED_EDGE('',*,*,#78,.F.);
#109=ORIENTED_EDGE('',*,*,#84,.F.);
#110=ORIENTED_EDGE('',*,*,#81,.T.);
#111=ORIENTED_EDGE('',*,*,#82,.T.);
#112=ORIENTED_EDGE('',*,*,#85,.T.);
#113=ORIENTED_EDGE('',*,*,#86,.T.);
#114=ORIENTED_EDGE('',*,*,#87,.T.);
#115=ORIENTED_EDGE('',*,*,#85,.F.);
#116=ORIENTED_EDGE('',*,*,#87,.F.);
#117=ORIENTED_EDGE('',*,*,#88,.T.);
#118=ORIENTED_EDGE('',*,*,#89,.T.);
#119=ORIENTED_EDGE('',*,*,#88,.F.);
#120=ORIENTED_EDGE('',*,*,#86,.F.);
#121=ORIENTED_EDGE('',*,*,#83,.T.);
#122=ORIENTED_EDGE('',*,*,#90,.F.);
#123=ORIENTED_EDGE('',*,*,#90,.T.);
#124=ORIENTED_EDGE('',*,*,#91,.T.);
#125=ORIENTED_EDGE('',*,*,#92,.F.);
#126=ORIENTED_EDGE('',*,*,#91,.F.);
#127=ORIENTED_EDGE('',*,*,#89,.F.);
#128=ORIENTED_EDGE('',*,*,#92,.T.);
#129=TOROIDAL_SURFACE('',#162,19.55,0.5);
#130=TOROIDAL_SURFACE('',#173,27.,0.5);
#131=ADVANCED_FACE('',(#31),#129,.F.);
#132=ADVANCED_FACE('',(#32),#30,.T.);
#133=ADVANCED_FACE('',(#33),#19,.T.);
#134=ADVANCED_FACE('',(#34),#130,.T.);
#135=ADVANCED_FACE('',(#35),#20,.T.);
#136=ADVANCED_FACE('',(#36,#15),#17,.T.);
#137=ADVANCED_FACE('',(#37),#21,.F.);
#138=ADVANCED_FACE('',(#38,#16),#18,.T.);
#139=CLOSED_SHELL('',(#131,#132,#133,#134,#135,#136,#137,#138));
#140=DERIVED_UNIT_ELEMENT(#143,1.);
#141=DERIVED_UNIT_ELEMENT(#278,-3.);
#142=DIMENSIONAL_EXPONENTS(0.,1.,0.,0.,0.,0.,0.);
#143=(
CONVERSION_BASED_UNIT('gram',#145)
MASS_UNIT()
NAMED_UNIT(#142)
);
#144=(
MASS_UNIT()
NAMED_UNIT(*)
SI_UNIT(.KILO.,.GRAM.)
);
#145=MASS_MEASURE_WITH_UNIT(MASS_MEASURE(0.001),#144);
#146=DERIVED_UNIT((#140,#141));
#147=MEASURE_REPRESENTATION_ITEM('density measure',
POSITIVE_RATIO_MEASURE(8.),#146);
#148=PROPERTY_DEFINITION_REPRESENTATION(#153,#150);
#149=PROPERTY_DEFINITION_REPRESENTATION(#154,#151);
#150=REPRESENTATION('material name',(#152),#275);
#151=REPRESENTATION('density',(#147),#275);
#152=DESCRIPTIVE_REPRESENTATION_ITEM('Stainless Steel AISI 304',
'Stainless Steel AISI 304');
#153=PROPERTY_DEFINITION('material property','material name',#285);
#154=PROPERTY_DEFINITION('material property','density of part',#285);
#155=DATE_TIME_ROLE('creation_date');
#156=APPLIED_DATE_AND_TIME_ASSIGNMENT(#157,#155,(#285));
#157=DATE_AND_TIME(#158,#159);
#158=CALENDAR_DATE(2017,29,3);
#159=LOCAL_TIME(0,0,0.,#160);
#160=COORDINATED_UNIVERSAL_TIME_OFFSET(0,0,.BEHIND.);
#161=AXIS2_PLACEMENT_3D('',#234,#184,#185);
#162=AXIS2_PLACEMENT_3D('',#235,#186,#187);
#163=AXIS2_PLACEMENT_3D('',#238,#188,#189);
#164=AXIS2_PLACEMENT_3D('',#240,#190,#191);
#165=AXIS2_PLACEMENT_3D('',#242,#192,#193);
#166=AXIS2_PLACEMENT_3D('',#243,#194,#195);
#167=AXIS2_PLACEMENT_3D('',#244,#196,#197);
#168=AXIS2_PLACEMENT_3D('',#245,#198,#199);
#169=AXIS2_PLACEMENT_3D('',#249,#201,#202);
#170=AXIS2_PLACEMENT_3D('',#250,#203,#204);
#171=AXIS2_PLACEMENT_3D('',#251,#205,#206);
#172=AXIS2_PLACEMENT_3D('',#253,#207,#208);
#173=AXIS2_PLACEMENT_3D('',#255,#210,#211);
#174=AXIS2_PLACEMENT_3D('',#257,#212,#213);
#175=AXIS2_PLACEMENT_3D('',#259,#214,#215);
#176=AXIS2_PLACEMENT_3D('',#260,#216,#217);
#177=AXIS2_PLACEMENT_3D('',#261,#218,#219);
#178=AXIS2_PLACEMENT_3D('',#264,#221,#222);
#179=AXIS2_PLACEMENT_3D('',#265,#223,#224);
#180=AXIS2_PLACEMENT_3D('',#267,#225,#226);
#181=AXIS2_PLACEMENT_3D('',#268,#227,#228);
#182=AXIS2_PLACEMENT_3D('',#271,#230,#231);
#183=AXIS2_PLACEMENT_3D('',#272,#232,#233);
#184=DIRECTION('axis',(0.,0.,1.));
#185=DIRECTION('refdir',(1.,0.,0.));
#186=DIRECTION('center_axis',(1.,0.,0.));
#187=DIRECTION('ref_axis',(0.,0.,-1.));
#188=DIRECTION('center_axis',(1.,0.,0.));
#189=DIRECTION('ref_axis',(0.,-1.,3.06161699786838E-17));
#190=DIRECTION('center_axis',(0.,-1.,-1.22464679914735E-16));
#191=DIRECTION('ref_axis',(0.,-1.22464679914735E-16,1.));
#192=DIRECTION('center_axis',(-1.,0.,0.));
#193=DIRECTION('ref_axis',(0.,-1.,1.83697019872103E-16));
#194=DIRECTION('center_axis',(-1.,0.,0.));
#195=DIRECTION('ref_axis',(0.,-1.,1.83697019872103E-16));
#196=DIRECTION('center_axis',(1.,0.,0.));
#197=DIRECTION('ref_axis',(0.,-1.,3.06161699786838E-17));
#198=DIRECTION('center_axis',(-1.,0.,0.));
#199=DIRECTION('ref_axis',(0.,1.,0.));
#200=DIRECTION('',(-0.25881904510252,-0.965925826289068,-1.18291797137867E-16));
#201=DIRECTION('center_axis',(-1.,0.,0.));
#202=DIRECTION('ref_axis',(0.,-1.,3.06161699786838E-17));
#203=DIRECTION('center_axis',(-1.,0.,0.));
#204=DIRECTION('ref_axis',(0.,-1.,3.06161699786838E-17));
#205=DIRECTION('center_axis',(1.,0.,0.));
#206=DIRECTION('ref_axis',(0.,1.,0.));
#207=DIRECTION('center_axis',(1.,0.,0.));
#208=DIRECTION('ref_axis',(0.,0.,-1.));
#209=DIRECTION('',(-1.,0.,0.));
#210=DIRECTION('center_axis',(1.,0.,0.));
#211=DIRECTION('ref_axis',(0.,0.,-1.));
#212=DIRECTION('center_axis',(0.,-1.,-1.22464679914735E-16));
#213=DIRECTION('ref_axis',(0.,-1.22464679914735E-16,1.));
#214=DIRECTION('center_axis',(1.,0.,0.));
#215=DIRECTION('ref_axis',(0.,-1.,1.83697019872103E-16));
#216=DIRECTION('center_axis',(1.,0.,0.));
#217=DIRECTION('ref_axis',(0.,-1.,1.83697019872103E-16));
#218=DIRECTION('center_axis',(1.,0.,0.));
#219=DIRECTION('ref_axis',(0.,1.,0.));
#220=DIRECTION('',(-1.,0.,0.));
#221=DIRECTION('center_axis',(1.,0.,0.));
#222=DIRECTION('ref_axis',(0.,0.,-1.));
#223=DIRECTION('center_axis',(1.,0.,0.));
#224=DIRECTION('ref_axis',(0.,0.,-1.));
#225=DIRECTION('center_axis',(1.,0.,0.));
#226=DIRECTION('ref_axis',(0.,0.,-1.));
#227=DIRECTION('center_axis',(1.,0.,0.));
#228=DIRECTION('ref_axis',(0.,1.,0.));
#229=DIRECTION('',(-1.,0.,0.));
#230=DIRECTION('center_axis',(1.,0.,0.));
#231=DIRECTION('ref_axis',(0.,0.,-1.));
#232=DIRECTION('center_axis',(-1.,0.,0.));
#233=DIRECTION('ref_axis',(0.,0.,1.));
#234=CARTESIAN_POINT('',(0.,0.,0.));
#235=CARTESIAN_POINT('Origin',(5.14783417003246,0.,0.));
#236=CARTESIAN_POINT('',(4.66487125688793,-19.4205904774487,-2.37833639657592E-15));
#237=CARTESIAN_POINT('',(4.66487125688793,-2.37833639657592E-15,19.4205904774487));
#238=CARTESIAN_POINT('Origin',(4.66487125688793,0.,-2.9729204957199E-15));
#239=CARTESIAN_POINT('',(5.14783417003246,-2.33295215237571E-15,19.05));
#240=CARTESIAN_POINT('Origin',(5.14783417003246,-2.39418449233308E-15,19.55));
#241=CARTESIAN_POINT('',(5.14783417003246,-19.05,-2.33295215237571E-15));
#242=CARTESIAN_POINT('Origin',(5.14783417003246,0.,0.));
#243=CARTESIAN_POINT('Origin',(5.14783417003246,0.,0.));
#244=CARTESIAN_POINT('Origin',(4.66487125688793,0.,-2.9729204957199E-15));
#245=CARTESIAN_POINT('Origin',(3.63208533802149,0.,0.));
#246=CARTESIAN_POINT('',(2.59929941915505,-27.1294095225513,-3.32239445345501E-15));
#247=CARTESIAN_POINT('',(3.63208533802149,-23.275,-2.85036542501546E-15));
#248=CARTESIAN_POINT('',(2.59929941915505,-3.32239445345501E-15,27.1294095225513));
#249=CARTESIAN_POINT('Origin',(2.59929941915505,0.,-4.15299306681877E-15));
#250=CARTESIAN_POINT('Origin',(2.59929941915505,0.,-4.15299306681877E-15));
#251=CARTESIAN_POINT('Origin',(11.9320853380215,0.,0.));
#252=CARTESIAN_POINT('',(19.1,-19.05,-2.33295215237571E-15));
#253=CARTESIAN_POINT('Origin',(19.1,0.,0.));
#254=CARTESIAN_POINT('',(11.9320853380215,-19.05,-2.33295215237571E-15));
#255=CARTESIAN_POINT('Origin',(2.11633650601052,0.,0.));
#256=CARTESIAN_POINT('',(2.11633650601052,-3.36777869765522E-15,27.5));
#257=CARTESIAN_POINT('Origin',(2.11633650601052,-3.30654635769785E-15,27.));
#258=CARTESIAN_POINT('',(2.11633650601052,-27.5,-3.36777869765522E-15));
#259=CARTESIAN_POINT('Origin',(2.11633650601052,0.,0.));
#260=CARTESIAN_POINT('Origin',(2.11633650601052,0.,0.));
#261=CARTESIAN_POINT('Origin',(1.25,0.,0.));
#262=CARTESIAN_POINT('',(0.,-27.5,-3.36777869765522E-15));
#263=CARTESIAN_POINT('',(1.25,-27.5,-3.36777869765522E-15));
#264=CARTESIAN_POINT('Origin',(0.,0.,0.));
#265=CARTESIAN_POINT('Origin',(19.1,17.5,0.));
#266=CARTESIAN_POINT('',(19.1,-17.5,-2.14313189850787E-15));
#267=CARTESIAN_POINT('Origin',(19.1,0.,0.));
#268=CARTESIAN_POINT('Origin',(9.55,0.,0.));
#269=CARTESIAN_POINT('',(1.11022302462516E-15,-17.5,-2.14313189850787E-15));
#270=CARTESIAN_POINT('',(9.55,-17.5,-2.14313189850787E-15));
#271=CARTESIAN_POINT('Origin',(0.,0.,0.));
#272=CARTESIAN_POINT('Origin',(0.,27.5,0.));
#273=UNCERTAINTY_MEASURE_WITH_UNIT(LENGTH_MEASURE(0.01),#277,
'DISTANCE_ACCURACY_VALUE',
'Maximum model space distance between geometric entities at asserted c
onnectivities');
#274=UNCERTAINTY_MEASURE_WITH_UNIT(LENGTH_MEASURE(0.01),#277,
'DISTANCE_ACCURACY_VALUE',
'Maximum model space distance between geometric entities at asserted c
onnectivities');
#275=(
GEOMETRIC_REPRESENTATION_CONTEXT(3)
GLOBAL_UNCERTAINTY_ASSIGNED_CONTEXT((#273))
GLOBAL_UNIT_ASSIGNED_CONTEXT((#277,#279,#280))
REPRESENTATION_CONTEXT('','3D')
);
#276=(
GEOMETRIC_REPRESENTATION_CONTEXT(3)
GLOBAL_UNCERTAINTY_ASSIGNED_CONTEXT((#274))
GLOBAL_UNIT_ASSIGNED_CONTEXT((#277,#279,#280))
REPRESENTATION_CONTEXT('','3D')
);
#277=(
LENGTH_UNIT()
NAMED_UNIT(*)
SI_UNIT(.MILLI.,.METRE.)
);
#278=(
LENGTH_UNIT()
NAMED_UNIT(*)
SI_UNIT(.CENTI.,.METRE.)
);
#279=(
NAMED_UNIT(*)
PLANE_ANGLE_UNIT()
SI_UNIT($,.RADIAN.)
);
#280=(
NAMED_UNIT(*)
SI_UNIT($,.STERADIAN.)
SOLID_ANGLE_UNIT()
);
#281=SHAPE_DEFINITION_REPRESENTATION(#282,#283);
#282=PRODUCT_DEFINITION_SHAPE('',$,#285);
#283=SHAPE_REPRESENTATION('',(#161),#275);
#284=PRODUCT_DEFINITION_CONTEXT('part definition',#289,'design');
#285=PRODUCT_DEFINITION('FL-SHN40KF-38','FL-SHN40KF-38',#286,#284);
#286=PRODUCT_DEFINITION_FORMATION('',$,#291);
#287=PRODUCT_RELATED_PRODUCT_CATEGORY('FL-SHN40KF-38','FL-SHN40KF-38',(#291));
#288=APPLICATION_PROTOCOL_DEFINITION('international standard',
'automotive_design',2009,#289);
#289=APPLICATION_CONTEXT(
'Core Data for Automotive Mechanical Design Process');
#290=PRODUCT_CONTEXT('part definition',#289,'mechanical');
#291=PRODUCT('FL-SHN40KF-38','FL-SHN40KF-38',$,(#290));
#292=PRESENTATION_STYLE_ASSIGNMENT((#293));
#293=SURFACE_STYLE_USAGE(.BOTH.,#296);
#294=SURFACE_STYLE_RENDERING_WITH_PROPERTIES($,#300,(#295));
#295=SURFACE_STYLE_TRANSPARENT(0.);
#296=SURFACE_SIDE_STYLE('',(#297,#294));
#297=SURFACE_STYLE_FILL_AREA(#298);
#298=FILL_AREA_STYLE('',(#299));
#299=FILL_AREA_STYLE_COLOUR('',#300);
#300=COLOUR_RGB('',0.745098039215686,0.737254901960784,0.729411764705882);
ENDSEC;
END-ISO-10303-21;
