ISO-10303-21;
HEADER;
/* Generated by software containing ST-Developer
 * from STEP Tools, Inc. (www.steptools.com) 
 */

FILE_DESCRIPTION(
/* description */ (''),
/* implementation_level */ '2;1');

FILE_NAME(
/* name */ 'FL-SHN25KF-25.stp',
/* time_stamp */ '2023-07-07T08:56:21+01:00',
/* author */ ('PaulJarvis'),
/* organization */ (''),
/* preprocessor_version */ 'ST-DEVELOPER v19.2',
/* originating_system */ 'Autodesk Inventor 2023',
/* authorisation */ '');

FILE_SCHEMA (('AUTOMOTIVE_DESIGN { 1 0 10303 214 3 1 1 }'));
ENDSEC;

DATA;
#10=MECHANICAL_DESIGN_GEOMETRIC_PRESENTATION_REPRESENTATION('',(#13),#229);
#11=SHAPE_REPRESENTATION_RELATIONSHIP('SRR','None',#236,#12);
#12=ADVANCED_BREP_SHAPE_REPRESENTATION('',(#14),#228);
#13=STYLED_ITEM('',(#245),#14);
#14=MANIFOLD_SOLID_BREP('Solid1',#118);
#15=CONICAL_SURFACE('',#150,16.35,1.30899693899575);
#16=LINE('',#204,#21);
#17=LINE('',#212,#22);
#18=LINE('',#216,#23);
#19=LINE('',#220,#24);
#20=LINE('',#225,#25);
#21=VECTOR('',#167,13.1);
#22=VECTOR('',#178,20.);
#23=VECTOR('',#183,16.35);
#24=VECTOR('',#188,12.7);
#25=VECTOR('',#195,11.);
#26=CYLINDRICAL_SURFACE('',#144,13.1);
#27=CYLINDRICAL_SURFACE('',#148,20.);
#28=CYLINDRICAL_SURFACE('',#152,12.7);
#29=CYLINDRICAL_SURFACE('',#156,11.);
#30=FACE_BOUND('',#42,.T.);
#31=FACE_BOUND('',#45,.T.);
#32=FACE_BOUND('',#50,.T.);
#33=FACE_OUTER_BOUND('',#41,.T.);
#34=FACE_OUTER_BOUND('',#43,.T.);
#35=FACE_OUTER_BOUND('',#44,.T.);
#36=FACE_OUTER_BOUND('',#46,.T.);
#37=FACE_OUTER_BOUND('',#47,.T.);
#38=FACE_OUTER_BOUND('',#48,.T.);
#39=FACE_OUTER_BOUND('',#49,.T.);
#40=FACE_OUTER_BOUND('',#51,.T.);
#41=EDGE_LOOP('',(#81));
#42=EDGE_LOOP('',(#82));
#43=EDGE_LOOP('',(#83,#84,#85,#86));
#44=EDGE_LOOP('',(#87));
#45=EDGE_LOOP('',(#88));
#46=EDGE_LOOP('',(#89,#90,#91,#92));
#47=EDGE_LOOP('',(#93,#94,#95,#96));
#48=EDGE_LOOP('',(#97,#98,#99,#100));
#49=EDGE_LOOP('',(#101));
#50=EDGE_LOOP('',(#102));
#51=EDGE_LOOP('',(#103,#104,#105,#106));
#52=CIRCLE('',#142,13.1);
#53=CIRCLE('',#143,11.);
#54=CIRCLE('',#145,13.1);
#55=CIRCLE('',#147,20.);
#56=CIRCLE('',#149,20.);
#57=CIRCLE('',#151,12.7);
#58=CIRCLE('',#153,12.7);
#59=CIRCLE('',#155,11.);
#60=VERTEX_POINT('',#198);
#61=VERTEX_POINT('',#200);
#62=VERTEX_POINT('',#203);
#63=VERTEX_POINT('',#207);
#64=VERTEX_POINT('',#210);
#65=VERTEX_POINT('',#214);
#66=VERTEX_POINT('',#218);
#67=VERTEX_POINT('',#222);
#68=EDGE_CURVE('',#60,#60,#52,.T.);
#69=EDGE_CURVE('',#61,#61,#53,.T.);
#70=EDGE_CURVE('',#60,#62,#16,.T.);
#71=EDGE_CURVE('',#62,#62,#54,.T.);
#72=EDGE_CURVE('',#63,#63,#55,.T.);
#73=EDGE_CURVE('',#64,#64,#56,.T.);
#74=EDGE_CURVE('',#64,#63,#17,.T.);
#75=EDGE_CURVE('',#65,#65,#57,.T.);
#76=EDGE_CURVE('',#65,#64,#18,.T.);
#77=EDGE_CURVE('',#66,#66,#58,.T.);
#78=EDGE_CURVE('',#66,#65,#19,.T.);
#79=EDGE_CURVE('',#67,#67,#59,.T.);
#80=EDGE_CURVE('',#67,#61,#20,.T.);
#81=ORIENTED_EDGE('',*,*,#68,.F.);
#82=ORIENTED_EDGE('',*,*,#69,.T.);
#83=ORIENTED_EDGE('',*,*,#68,.T.);
#84=ORIENTED_EDGE('',*,*,#70,.T.);
#85=ORIENTED_EDGE('',*,*,#71,.F.);
#86=ORIENTED_EDGE('',*,*,#70,.F.);
#87=ORIENTED_EDGE('',*,*,#72,.F.);
#88=ORIENTED_EDGE('',*,*,#71,.T.);
#89=ORIENTED_EDGE('',*,*,#73,.F.);
#90=ORIENTED_EDGE('',*,*,#74,.T.);
#91=ORIENTED_EDGE('',*,*,#72,.T.);
#92=ORIENTED_EDGE('',*,*,#74,.F.);
#93=ORIENTED_EDGE('',*,*,#75,.F.);
#94=ORIENTED_EDGE('',*,*,#76,.T.);
#95=ORIENTED_EDGE('',*,*,#73,.T.);
#96=ORIENTED_EDGE('',*,*,#76,.F.);
#97=ORIENTED_EDGE('',*,*,#77,.F.);
#98=ORIENTED_EDGE('',*,*,#78,.T.);
#99=ORIENTED_EDGE('',*,*,#75,.T.);
#100=ORIENTED_EDGE('',*,*,#78,.F.);
#101=ORIENTED_EDGE('',*,*,#77,.T.);
#102=ORIENTED_EDGE('',*,*,#79,.F.);
#103=ORIENTED_EDGE('',*,*,#79,.T.);
#104=ORIENTED_EDGE('',*,*,#80,.T.);
#105=ORIENTED_EDGE('',*,*,#69,.F.);
#106=ORIENTED_EDGE('',*,*,#80,.F.);
#107=PLANE('',#141);
#108=PLANE('',#146);
#109=PLANE('',#154);
#110=ADVANCED_FACE('',(#33,#30),#107,.T.);
#111=ADVANCED_FACE('',(#34),#26,.F.);
#112=ADVANCED_FACE('',(#35,#31),#108,.T.);
#113=ADVANCED_FACE('',(#36),#27,.T.);
#114=ADVANCED_FACE('',(#37),#15,.T.);
#115=ADVANCED_FACE('',(#38),#28,.T.);
#116=ADVANCED_FACE('',(#39,#32),#109,.T.);
#117=ADVANCED_FACE('',(#40),#29,.F.);
#118=CLOSED_SHELL('',(#110,#111,#112,#113,#114,#115,#116,#117));
#119=DERIVED_UNIT_ELEMENT(#122,1.);
#120=DERIVED_UNIT_ELEMENT(#231,-3.);
#121=DIMENSIONAL_EXPONENTS(0.,1.,0.,0.,0.,0.,0.);
#122=(
CONVERSION_BASED_UNIT('gram',#124)
MASS_UNIT()
NAMED_UNIT(#121)
);
#123=(
MASS_UNIT()
NAMED_UNIT(*)
SI_UNIT(.KILO.,.GRAM.)
);
#124=MASS_MEASURE_WITH_UNIT(MASS_MEASURE(0.001),#123);
#125=DERIVED_UNIT((#119,#120));
#126=MEASURE_REPRESENTATION_ITEM('density measure',
POSITIVE_RATIO_MEASURE(8.),#125);
#127=PROPERTY_DEFINITION_REPRESENTATION(#132,#129);
#128=PROPERTY_DEFINITION_REPRESENTATION(#133,#130);
#129=REPRESENTATION('material name',(#131),#228);
#130=REPRESENTATION('density',(#126),#228);
#131=DESCRIPTIVE_REPRESENTATION_ITEM('Stainless Steel AISI 304',
'Stainless Steel AISI 304');
#132=PROPERTY_DEFINITION('material property','material name',#238);
#133=PROPERTY_DEFINITION('material property','density of part',#238);
#134=DATE_TIME_ROLE('creation_date');
#135=APPLIED_DATE_AND_TIME_ASSIGNMENT(#136,#134,(#238));
#136=DATE_AND_TIME(#137,#138);
#137=CALENDAR_DATE(2014,18,11);
#138=LOCAL_TIME(0,0,0.,#139);
#139=COORDINATED_UNIVERSAL_TIME_OFFSET(0,0,.BEHIND.);
#140=AXIS2_PLACEMENT_3D('',#196,#157,#158);
#141=AXIS2_PLACEMENT_3D('',#197,#159,#160);
#142=AXIS2_PLACEMENT_3D('',#199,#161,#162);
#143=AXIS2_PLACEMENT_3D('',#201,#163,#164);
#144=AXIS2_PLACEMENT_3D('',#202,#165,#166);
#145=AXIS2_PLACEMENT_3D('',#205,#168,#169);
#146=AXIS2_PLACEMENT_3D('',#206,#170,#171);
#147=AXIS2_PLACEMENT_3D('',#208,#172,#173);
#148=AXIS2_PLACEMENT_3D('',#209,#174,#175);
#149=AXIS2_PLACEMENT_3D('',#211,#176,#177);
#150=AXIS2_PLACEMENT_3D('',#213,#179,#180);
#151=AXIS2_PLACEMENT_3D('',#215,#181,#182);
#152=AXIS2_PLACEMENT_3D('',#217,#184,#185);
#153=AXIS2_PLACEMENT_3D('',#219,#186,#187);
#154=AXIS2_PLACEMENT_3D('',#221,#189,#190);
#155=AXIS2_PLACEMENT_3D('',#223,#191,#192);
#156=AXIS2_PLACEMENT_3D('',#224,#193,#194);
#157=DIRECTION('axis',(0.,0.,1.));
#158=DIRECTION('refdir',(1.,0.,0.));
#159=DIRECTION('center_axis',(0.,-1.,0.));
#160=DIRECTION('ref_axis',(0.,0.,-1.));
#161=DIRECTION('center_axis',(0.,1.,0.));
#162=DIRECTION('ref_axis',(1.,0.,0.));
#163=DIRECTION('center_axis',(0.,1.,0.));
#164=DIRECTION('ref_axis',(1.,0.,0.));
#165=DIRECTION('center_axis',(0.,1.,0.));
#166=DIRECTION('ref_axis',(-1.,0.,0.));
#167=DIRECTION('',(0.,-1.,0.));
#168=DIRECTION('center_axis',(0.,1.,0.));
#169=DIRECTION('ref_axis',(1.,0.,0.));
#170=DIRECTION('center_axis',(0.,-1.,0.));
#171=DIRECTION('ref_axis',(0.,0.,-1.));
#172=DIRECTION('center_axis',(0.,1.,0.));
#173=DIRECTION('ref_axis',(1.,0.,0.));
#174=DIRECTION('center_axis',(0.,1.,0.));
#175=DIRECTION('ref_axis',(-1.,0.,0.));
#176=DIRECTION('center_axis',(0.,1.,0.));
#177=DIRECTION('ref_axis',(1.,0.,0.));
#178=DIRECTION('',(0.,-1.,0.));
#179=DIRECTION('center_axis',(0.,-1.,0.));
#180=DIRECTION('ref_axis',(-1.,0.,0.));
#181=DIRECTION('center_axis',(0.,1.,0.));
#182=DIRECTION('ref_axis',(1.,0.,0.));
#183=DIRECTION('',(0.965925826289068,-0.25881904510252,-1.18291797137867E-16));
#184=DIRECTION('center_axis',(0.,1.,0.));
#185=DIRECTION('ref_axis',(-1.,0.,0.));
#186=DIRECTION('center_axis',(0.,1.,0.));
#187=DIRECTION('ref_axis',(1.,0.,0.));
#188=DIRECTION('',(0.,-1.,0.));
#189=DIRECTION('center_axis',(0.,1.,0.));
#190=DIRECTION('ref_axis',(0.,0.,1.));
#191=DIRECTION('center_axis',(0.,1.,0.));
#192=DIRECTION('ref_axis',(1.,0.,0.));
#193=DIRECTION('center_axis',(0.,1.,0.));
#194=DIRECTION('ref_axis',(-1.,0.,0.));
#195=DIRECTION('',(0.,-1.,0.));
#196=CARTESIAN_POINT('',(0.,0.,0.));
#197=CARTESIAN_POINT('Origin',(-13.1,2.5,0.));
#198=CARTESIAN_POINT('',(13.1,2.5,-1.60428730688303E-15));
#199=CARTESIAN_POINT('Origin',(0.,2.5,0.));
#200=CARTESIAN_POINT('',(11.,2.5,-1.34711147906209E-15));
#201=CARTESIAN_POINT('Origin',(0.,2.5,0.));
#202=CARTESIAN_POINT('Origin',(0.,1.25,0.));
#203=CARTESIAN_POINT('',(13.1,0.,-1.60428730688303E-15));
#204=CARTESIAN_POINT('',(13.1,1.25,-1.60428730688303E-15));
#205=CARTESIAN_POINT('Origin',(0.,0.,0.));
#206=CARTESIAN_POINT('Origin',(-20.,0.,0.));
#207=CARTESIAN_POINT('',(20.,0.,-2.44929359829471E-15));
#208=CARTESIAN_POINT('Origin',(0.,0.,0.));
#209=CARTESIAN_POINT('Origin',(0.,1.5,0.));
#210=CARTESIAN_POINT('',(20.,3.,-2.44929359829471E-15));
#211=CARTESIAN_POINT('Origin',(0.,3.,0.));
#212=CARTESIAN_POINT('',(20.,1.5,-2.44929359829471E-15));
#213=CARTESIAN_POINT('Origin',(0.,3.9780145523736,0.));
#214=CARTESIAN_POINT('',(12.7,4.95602910474719,-1.55530143491714E-15));
#215=CARTESIAN_POINT('Origin',(0.,4.95602910474719,0.));
#216=CARTESIAN_POINT('',(16.35,3.9780145523736,-2.00229751660592E-15));
#217=CARTESIAN_POINT('Origin',(0.,8.8280145523736,0.));
#218=CARTESIAN_POINT('',(12.7,12.7,-1.55530143491714E-15));
#219=CARTESIAN_POINT('Origin',(0.,12.7,0.));
#220=CARTESIAN_POINT('',(12.7,8.8280145523736,-1.55530143491714E-15));
#221=CARTESIAN_POINT('Origin',(-11.,12.7,0.));
#222=CARTESIAN_POINT('',(11.,12.7,-1.34711147906209E-15));
#223=CARTESIAN_POINT('Origin',(0.,12.7,0.));
#224=CARTESIAN_POINT('Origin',(0.,7.6,0.));
#225=CARTESIAN_POINT('',(11.,7.6,-1.34711147906209E-15));
#226=UNCERTAINTY_MEASURE_WITH_UNIT(LENGTH_MEASURE(0.01),#230,
'DISTANCE_ACCURACY_VALUE',
'Maximum model space distance between geometric entities at asserted c
onnectivities');
#227=UNCERTAINTY_MEASURE_WITH_UNIT(LENGTH_MEASURE(0.01),#230,
'DISTANCE_ACCURACY_VALUE',
'Maximum model space distance between geometric entities at asserted c
onnectivities');
#228=(
GEOMETRIC_REPRESENTATION_CONTEXT(3)
GLOBAL_UNCERTAINTY_ASSIGNED_CONTEXT((#226))
GLOBAL_UNIT_ASSIGNED_CONTEXT((#230,#232,#233))
REPRESENTATION_CONTEXT('','3D')
);
#229=(
GEOMETRIC_REPRESENTATION_CONTEXT(3)
GLOBAL_UNCERTAINTY_ASSIGNED_CONTEXT((#227))
GLOBAL_UNIT_ASSIGNED_CONTEXT((#230,#232,#233))
REPRESENTATION_CONTEXT('','3D')
);
#230=(
LENGTH_UNIT()
NAMED_UNIT(*)
SI_UNIT(.MILLI.,.METRE.)
);
#231=(
LENGTH_UNIT()
NAMED_UNIT(*)
SI_UNIT(.CENTI.,.METRE.)
);
#232=(
NAMED_UNIT(*)
PLANE_ANGLE_UNIT()
SI_UNIT($,.RADIAN.)
);
#233=(
NAMED_UNIT(*)
SI_UNIT($,.STERADIAN.)
SOLID_ANGLE_UNIT()
);
#234=SHAPE_DEFINITION_REPRESENTATION(#235,#236);
#235=PRODUCT_DEFINITION_SHAPE('',$,#238);
#236=SHAPE_REPRESENTATION('',(#140),#228);
#237=PRODUCT_DEFINITION_CONTEXT('part definition',#242,'design');
#238=PRODUCT_DEFINITION('FL-SHN25KF-25','FL-SHN25KF-25',#239,#237);
#239=PRODUCT_DEFINITION_FORMATION('',$,#244);
#240=PRODUCT_RELATED_PRODUCT_CATEGORY('FL-SHN25KF-25','FL-SHN25KF-25',(#244));
#241=APPLICATION_PROTOCOL_DEFINITION('international standard',
'automotive_design',2009,#242);
#242=APPLICATION_CONTEXT(
'Core Data for Automotive Mechanical Design Process');
#243=PRODUCT_CONTEXT('part definition',#242,'mechanical');
#244=PRODUCT('FL-SHN25KF-25','FL-SHN25KF-25',$,(#243));
#245=PRESENTATION_STYLE_ASSIGNMENT((#246));
#246=SURFACE_STYLE_USAGE(.BOTH.,#249);
#247=SURFACE_STYLE_RENDERING_WITH_PROPERTIES($,#253,(#248));
#248=SURFACE_STYLE_TRANSPARENT(0.);
#249=SURFACE_SIDE_STYLE('',(#250,#247));
#250=SURFACE_STYLE_FILL_AREA(#251);
#251=FILL_AREA_STYLE('',(#252));
#252=FILL_AREA_STYLE_COLOUR('',#253);
#253=COLOUR_RGB('',0.745098039215686,0.737254901960784,0.729411764705882);
ENDSEC;
END-ISO-10303-21;
