ISO-10303-21;
HEADER;
/* Generated by software containing ST-Developer
 * from STEP Tools, Inc. (www.steptools.com) 
 */

FILE_DESCRIPTION(
/* description */ (''),
/* implementation_level */ '2;1');

FILE_NAME(
/* name */ 
'G:\\FLANGES & FITTINGS\\Half Nipples\\Step files\\FL-SHN40KF-45.stp',
/* time_stamp */ '2018-07-24T16:04:58+01:00',
/* author */ ('paul'),
/* organization */ (''),
/* preprocessor_version */ 'ST-DEVELOPER v17',
/* originating_system */ 'Autodesk Inventor 2019',
/* authorisation */ '');

FILE_SCHEMA (('AUTOMOTIVE_DESIGN { 1 0 10303 214 3 1 1 }'));
ENDSEC;

DATA;
#10=MECHANICAL_DESIGN_GEOMETRIC_PRESENTATION_REPRESENTATION('',(#13),#353);
#11=SHAPE_REPRESENTATION_RELATIONSHIP('SRR','None',#360,#12);
#12=ADVANCED_BREP_SHAPE_REPRESENTATION('',(#14),#352);
#13=STYLED_ITEM('',(#369),#14);
#14=MANIFOLD_SOLID_BREP('Solid1',#179);
#15=FACE_BOUND('',#45,.T.);
#16=FACE_BOUND('',#48,.T.);
#17=PLANE('',#222);
#18=PLANE('',#228);
#19=CYLINDRICAL_SURFACE('',#211,22.5);
#20=CYLINDRICAL_SURFACE('',#219,27.5);
#21=CYLINDRICAL_SURFACE('',#225,20.5);
#22=LINE('',#312,#26);
#23=LINE('',#323,#27);
#24=LINE('',#334,#28);
#25=LINE('',#345,#29);
#26=VECTOR('',#249,25.);
#27=VECTOR('',#262,22.5);
#28=VECTOR('',#275,27.5);
#29=VECTOR('',#288,20.5);
#30=CONICAL_SURFACE('',#207,25.,1.30899693899575);
#31=FACE_OUTER_BOUND('',#39,.T.);
#32=FACE_OUTER_BOUND('',#40,.T.);
#33=FACE_OUTER_BOUND('',#41,.T.);
#34=FACE_OUTER_BOUND('',#42,.T.);
#35=FACE_OUTER_BOUND('',#43,.T.);
#36=FACE_OUTER_BOUND('',#44,.T.);
#37=FACE_OUTER_BOUND('',#46,.T.);
#38=FACE_OUTER_BOUND('',#47,.T.);
#39=EDGE_LOOP('',(#117,#118,#119,#120,#121,#122,#123,#124));
#40=EDGE_LOOP('',(#125,#126,#127,#128,#129,#130,#131,#132));
#41=EDGE_LOOP('',(#133,#134,#135,#136,#137,#138,#139));
#42=EDGE_LOOP('',(#140,#141,#142,#143,#144,#145,#146,#147));
#43=EDGE_LOOP('',(#148,#149,#150,#151,#152,#153,#154));
#44=EDGE_LOOP('',(#155,#156));
#45=EDGE_LOOP('',(#157,#158));
#46=EDGE_LOOP('',(#159,#160,#161,#162,#163,#164));
#47=EDGE_LOOP('',(#165,#166));
#48=EDGE_LOOP('',(#167,#168));
#49=CIRCLE('',#200,22.8705904774487);
#50=CIRCLE('',#201,0.5);
#51=CIRCLE('',#202,22.5);
#52=CIRCLE('',#203,22.5);
#53=CIRCLE('',#204,22.5);
#54=CIRCLE('',#205,22.8705904774487);
#55=CIRCLE('',#206,22.8705904774487);
#56=CIRCLE('',#208,27.1294095225513);
#57=CIRCLE('',#209,27.1294095225513);
#58=CIRCLE('',#210,27.1294095225513);
#59=CIRCLE('',#212,22.5);
#60=CIRCLE('',#213,22.5);
#61=CIRCLE('',#215,0.5);
#62=CIRCLE('',#216,27.5);
#63=CIRCLE('',#217,27.5);
#64=CIRCLE('',#218,27.5);
#65=CIRCLE('',#220,27.5);
#66=CIRCLE('',#221,27.5);
#67=CIRCLE('',#223,20.5);
#68=CIRCLE('',#224,20.5);
#69=CIRCLE('',#226,20.5);
#70=CIRCLE('',#227,20.5);
#71=VERTEX_POINT('',#297);
#72=VERTEX_POINT('',#298);
#73=VERTEX_POINT('',#300);
#74=VERTEX_POINT('',#302);
#75=VERTEX_POINT('',#304);
#76=VERTEX_POINT('',#307);
#77=VERTEX_POINT('',#311);
#78=VERTEX_POINT('',#313);
#79=VERTEX_POINT('',#315);
#80=VERTEX_POINT('',#319);
#81=VERTEX_POINT('',#320);
#82=VERTEX_POINT('',#325);
#83=VERTEX_POINT('',#327);
#84=VERTEX_POINT('',#329);
#85=VERTEX_POINT('',#333);
#86=VERTEX_POINT('',#335);
#87=VERTEX_POINT('',#339);
#88=VERTEX_POINT('',#340);
#89=VERTEX_POINT('',#344);
#90=VERTEX_POINT('',#346);
#91=EDGE_CURVE('',#71,#72,#49,.T.);
#92=EDGE_CURVE('',#72,#73,#50,.T.);
#93=EDGE_CURVE('',#73,#74,#51,.T.);
#94=EDGE_CURVE('',#74,#75,#52,.T.);
#95=EDGE_CURVE('',#75,#73,#53,.T.);
#96=EDGE_CURVE('',#72,#76,#54,.T.);
#97=EDGE_CURVE('',#76,#71,#55,.T.);
#98=EDGE_CURVE('',#76,#77,#22,.T.);
#99=EDGE_CURVE('',#78,#77,#56,.T.);
#100=EDGE_CURVE('',#79,#78,#57,.T.);
#101=EDGE_CURVE('',#77,#79,#58,.T.);
#102=EDGE_CURVE('',#80,#81,#59,.T.);
#103=EDGE_CURVE('',#81,#80,#60,.T.);
#104=EDGE_CURVE('',#81,#75,#23,.T.);
#105=EDGE_CURVE('',#79,#82,#61,.T.);
#106=EDGE_CURVE('',#82,#83,#62,.T.);
#107=EDGE_CURVE('',#83,#84,#63,.T.);
#108=EDGE_CURVE('',#84,#82,#64,.T.);
#109=EDGE_CURVE('',#83,#85,#24,.T.);
#110=EDGE_CURVE('',#85,#86,#65,.T.);
#111=EDGE_CURVE('',#86,#85,#66,.T.);
#112=EDGE_CURVE('',#87,#88,#67,.T.);
#113=EDGE_CURVE('',#88,#87,#68,.T.);
#114=EDGE_CURVE('',#88,#89,#25,.T.);
#115=EDGE_CURVE('',#90,#89,#69,.T.);
#116=EDGE_CURVE('',#89,#90,#70,.T.);
#117=ORIENTED_EDGE('',*,*,#91,.T.);
#118=ORIENTED_EDGE('',*,*,#92,.T.);
#119=ORIENTED_EDGE('',*,*,#93,.T.);
#120=ORIENTED_EDGE('',*,*,#94,.T.);
#121=ORIENTED_EDGE('',*,*,#95,.T.);
#122=ORIENTED_EDGE('',*,*,#92,.F.);
#123=ORIENTED_EDGE('',*,*,#96,.T.);
#124=ORIENTED_EDGE('',*,*,#97,.T.);
#125=ORIENTED_EDGE('',*,*,#91,.F.);
#126=ORIENTED_EDGE('',*,*,#97,.F.);
#127=ORIENTED_EDGE('',*,*,#98,.T.);
#128=ORIENTED_EDGE('',*,*,#99,.F.);
#129=ORIENTED_EDGE('',*,*,#100,.F.);
#130=ORIENTED_EDGE('',*,*,#101,.F.);
#131=ORIENTED_EDGE('',*,*,#98,.F.);
#132=ORIENTED_EDGE('',*,*,#96,.F.);
#133=ORIENTED_EDGE('',*,*,#102,.F.);
#134=ORIENTED_EDGE('',*,*,#103,.F.);
#135=ORIENTED_EDGE('',*,*,#104,.T.);
#136=ORIENTED_EDGE('',*,*,#94,.F.);
#137=ORIENTED_EDGE('',*,*,#93,.F.);
#138=ORIENTED_EDGE('',*,*,#95,.F.);
#139=ORIENTED_EDGE('',*,*,#104,.F.);
#140=ORIENTED_EDGE('',*,*,#99,.T.);
#141=ORIENTED_EDGE('',*,*,#101,.T.);
#142=ORIENTED_EDGE('',*,*,#105,.T.);
#143=ORIENTED_EDGE('',*,*,#106,.T.);
#144=ORIENTED_EDGE('',*,*,#107,.T.);
#145=ORIENTED_EDGE('',*,*,#108,.T.);
#146=ORIENTED_EDGE('',*,*,#105,.F.);
#147=ORIENTED_EDGE('',*,*,#100,.T.);
#148=ORIENTED_EDGE('',*,*,#108,.F.);
#149=ORIENTED_EDGE('',*,*,#107,.F.);
#150=ORIENTED_EDGE('',*,*,#109,.T.);
#151=ORIENTED_EDGE('',*,*,#110,.T.);
#152=ORIENTED_EDGE('',*,*,#111,.T.);
#153=ORIENTED_EDGE('',*,*,#109,.F.);
#154=ORIENTED_EDGE('',*,*,#106,.F.);
#155=ORIENTED_EDGE('',*,*,#102,.T.);
#156=ORIENTED_EDGE('',*,*,#103,.T.);
#157=ORIENTED_EDGE('',*,*,#112,.F.);
#158=ORIENTED_EDGE('',*,*,#113,.F.);
#159=ORIENTED_EDGE('',*,*,#112,.T.);
#160=ORIENTED_EDGE('',*,*,#114,.T.);
#161=ORIENTED_EDGE('',*,*,#115,.F.);
#162=ORIENTED_EDGE('',*,*,#116,.F.);
#163=ORIENTED_EDGE('',*,*,#114,.F.);
#164=ORIENTED_EDGE('',*,*,#113,.T.);
#165=ORIENTED_EDGE('',*,*,#111,.F.);
#166=ORIENTED_EDGE('',*,*,#110,.F.);
#167=ORIENTED_EDGE('',*,*,#115,.T.);
#168=ORIENTED_EDGE('',*,*,#116,.T.);
#169=TOROIDAL_SURFACE('',#199,23.,0.5);
#170=TOROIDAL_SURFACE('',#214,27.,0.5);
#171=ADVANCED_FACE('',(#31),#169,.F.);
#172=ADVANCED_FACE('',(#32),#30,.T.);
#173=ADVANCED_FACE('',(#33),#19,.T.);
#174=ADVANCED_FACE('',(#34),#170,.T.);
#175=ADVANCED_FACE('',(#35),#20,.T.);
#176=ADVANCED_FACE('',(#36,#15),#17,.T.);
#177=ADVANCED_FACE('',(#37),#21,.F.);
#178=ADVANCED_FACE('',(#38,#16),#18,.T.);
#179=CLOSED_SHELL('',(#171,#172,#173,#174,#175,#176,#177,#178));
#180=DERIVED_UNIT_ELEMENT(#182,1.);
#181=DERIVED_UNIT_ELEMENT(#355,3.);
#182=(
MASS_UNIT()
NAMED_UNIT(*)
SI_UNIT($,.GRAM.)
);
#183=DERIVED_UNIT((#180,#181));
#184=MEASURE_REPRESENTATION_ITEM('density measure',
POSITIVE_RATIO_MEASURE(8.),#183);
#185=PROPERTY_DEFINITION_REPRESENTATION(#190,#187);
#186=PROPERTY_DEFINITION_REPRESENTATION(#191,#188);
#187=REPRESENTATION('material name',(#189),#352);
#188=REPRESENTATION('density',(#184),#352);
#189=DESCRIPTIVE_REPRESENTATION_ITEM('Stainless Steel AISI 304',
'Stainless Steel AISI 304');
#190=PROPERTY_DEFINITION('material property','material name',#362);
#191=PROPERTY_DEFINITION('material property','density of part',#362);
#192=DATE_TIME_ROLE('creation_date');
#193=APPLIED_DATE_AND_TIME_ASSIGNMENT(#194,#192,(#362));
#194=DATE_AND_TIME(#195,#196);
#195=CALENDAR_DATE(2017,29,3);
#196=LOCAL_TIME(7,29,38.,#197);
#197=COORDINATED_UNIVERSAL_TIME_OFFSET(0,0,.BEHIND.);
#198=AXIS2_PLACEMENT_3D('placement',#295,#229,#230);
#199=AXIS2_PLACEMENT_3D('',#296,#231,#232);
#200=AXIS2_PLACEMENT_3D('',#299,#233,#234);
#201=AXIS2_PLACEMENT_3D('',#301,#235,#236);
#202=AXIS2_PLACEMENT_3D('',#303,#237,#238);
#203=AXIS2_PLACEMENT_3D('',#305,#239,#240);
#204=AXIS2_PLACEMENT_3D('',#306,#241,#242);
#205=AXIS2_PLACEMENT_3D('',#308,#243,#244);
#206=AXIS2_PLACEMENT_3D('',#309,#245,#246);
#207=AXIS2_PLACEMENT_3D('',#310,#247,#248);
#208=AXIS2_PLACEMENT_3D('',#314,#250,#251);
#209=AXIS2_PLACEMENT_3D('',#316,#252,#253);
#210=AXIS2_PLACEMENT_3D('',#317,#254,#255);
#211=AXIS2_PLACEMENT_3D('',#318,#256,#257);
#212=AXIS2_PLACEMENT_3D('',#321,#258,#259);
#213=AXIS2_PLACEMENT_3D('',#322,#260,#261);
#214=AXIS2_PLACEMENT_3D('',#324,#263,#264);
#215=AXIS2_PLACEMENT_3D('',#326,#265,#266);
#216=AXIS2_PLACEMENT_3D('',#328,#267,#268);
#217=AXIS2_PLACEMENT_3D('',#330,#269,#270);
#218=AXIS2_PLACEMENT_3D('',#331,#271,#272);
#219=AXIS2_PLACEMENT_3D('',#332,#273,#274);
#220=AXIS2_PLACEMENT_3D('',#336,#276,#277);
#221=AXIS2_PLACEMENT_3D('',#337,#278,#279);
#222=AXIS2_PLACEMENT_3D('',#338,#280,#281);
#223=AXIS2_PLACEMENT_3D('',#341,#282,#283);
#224=AXIS2_PLACEMENT_3D('',#342,#284,#285);
#225=AXIS2_PLACEMENT_3D('',#343,#286,#287);
#226=AXIS2_PLACEMENT_3D('',#347,#289,#290);
#227=AXIS2_PLACEMENT_3D('',#348,#291,#292);
#228=AXIS2_PLACEMENT_3D('',#349,#293,#294);
#229=DIRECTION('axis',(0.,0.,1.));
#230=DIRECTION('refdir',(1.,0.,0.));
#231=DIRECTION('center_axis',(1.,0.,0.));
#232=DIRECTION('ref_axis',(0.,0.,-1.));
#233=DIRECTION('center_axis',(1.,0.,0.));
#234=DIRECTION('ref_axis',(0.,-1.,3.06161699786838E-17));
#235=DIRECTION('center_axis',(0.,-1.,-1.22464679914735E-16));
#236=DIRECTION('ref_axis',(0.,-1.22464679914735E-16,1.));
#237=DIRECTION('center_axis',(-1.,0.,0.));
#238=DIRECTION('ref_axis',(0.,-1.,1.83697019872103E-16));
#239=DIRECTION('center_axis',(-1.,0.,0.));
#240=DIRECTION('ref_axis',(0.,-1.,1.83697019872103E-16));
#241=DIRECTION('center_axis',(-1.,0.,0.));
#242=DIRECTION('ref_axis',(0.,-1.,1.83697019872103E-16));
#243=DIRECTION('center_axis',(1.,0.,0.));
#244=DIRECTION('ref_axis',(0.,-1.,3.06161699786838E-17));
#245=DIRECTION('center_axis',(1.,0.,0.));
#246=DIRECTION('ref_axis',(0.,-1.,3.06161699786838E-17));
#247=DIRECTION('center_axis',(-1.,0.,0.));
#248=DIRECTION('ref_axis',(0.,1.,0.));
#249=DIRECTION('',(-0.25881904510252,-0.965925826289068,-1.18291797137867E-16));
#250=DIRECTION('center_axis',(-1.,0.,0.));
#251=DIRECTION('ref_axis',(0.,-1.,3.06161699786838E-17));
#252=DIRECTION('center_axis',(-1.,0.,0.));
#253=DIRECTION('ref_axis',(0.,-1.,3.06161699786838E-17));
#254=DIRECTION('center_axis',(-1.,0.,0.));
#255=DIRECTION('ref_axis',(0.,-1.,3.06161699786838E-17));
#256=DIRECTION('center_axis',(1.,0.,0.));
#257=DIRECTION('ref_axis',(0.,1.,0.));
#258=DIRECTION('center_axis',(1.,0.,0.));
#259=DIRECTION('ref_axis',(0.,0.,-1.));
#260=DIRECTION('center_axis',(1.,0.,0.));
#261=DIRECTION('ref_axis',(0.,0.,-1.));
#262=DIRECTION('',(-1.,0.,0.));
#263=DIRECTION('center_axis',(1.,0.,0.));
#264=DIRECTION('ref_axis',(0.,0.,-1.));
#265=DIRECTION('center_axis',(0.,-1.,-1.22464679914735E-16));
#266=DIRECTION('ref_axis',(0.,-1.22464679914735E-16,1.));
#267=DIRECTION('center_axis',(1.,0.,0.));
#268=DIRECTION('ref_axis',(0.,-1.,1.83697019872103E-16));
#269=DIRECTION('center_axis',(1.,0.,0.));
#270=DIRECTION('ref_axis',(0.,-1.,1.83697019872103E-16));
#271=DIRECTION('center_axis',(1.,0.,0.));
#272=DIRECTION('ref_axis',(0.,-1.,1.83697019872103E-16));
#273=DIRECTION('center_axis',(1.,0.,0.));
#274=DIRECTION('ref_axis',(0.,1.,0.));
#275=DIRECTION('',(-1.,0.,0.));
#276=DIRECTION('center_axis',(1.,0.,0.));
#277=DIRECTION('ref_axis',(0.,0.,-1.));
#278=DIRECTION('center_axis',(1.,0.,0.));
#279=DIRECTION('ref_axis',(0.,0.,-1.));
#280=DIRECTION('center_axis',(1.,0.,0.));
#281=DIRECTION('ref_axis',(0.,0.,-1.));
#282=DIRECTION('center_axis',(1.,0.,0.));
#283=DIRECTION('ref_axis',(0.,0.,-1.));
#284=DIRECTION('center_axis',(1.,0.,0.));
#285=DIRECTION('ref_axis',(0.,0.,-1.));
#286=DIRECTION('center_axis',(1.,0.,0.));
#287=DIRECTION('ref_axis',(0.,1.,0.));
#288=DIRECTION('',(-1.,0.,0.));
#289=DIRECTION('center_axis',(1.,0.,0.));
#290=DIRECTION('ref_axis',(0.,0.,-1.));
#291=DIRECTION('center_axis',(1.,0.,0.));
#292=DIRECTION('ref_axis',(0.,0.,-1.));
#293=DIRECTION('center_axis',(-1.,0.,0.));
#294=DIRECTION('ref_axis',(0.,0.,1.));
#295=CARTESIAN_POINT('',(0.,0.,0.));
#296=CARTESIAN_POINT('Origin',(4.22340945614509,0.,0.));
#297=CARTESIAN_POINT('',(3.74044654300056,22.8705904774487,-1.40041977114088E-15));
#298=CARTESIAN_POINT('',(3.74044654300056,-2.80083954228175E-15,22.8705904774487));
#299=CARTESIAN_POINT('Origin',(3.74044654300056,0.,-3.50104942785219E-15));
#300=CARTESIAN_POINT('',(4.22340945614509,-2.75545529808154E-15,22.5));
#301=CARTESIAN_POINT('Origin',(4.22340945614509,-2.81668763803891E-15,23.));
#302=CARTESIAN_POINT('',(4.22340945614509,22.5,-6.88863824520386E-15));
#303=CARTESIAN_POINT('Origin',(4.22340945614509,0.,0.));
#304=CARTESIAN_POINT('',(4.22340945614509,-22.5,-2.75545529808154E-15));
#305=CARTESIAN_POINT('Origin',(4.22340945614509,0.,0.));
#306=CARTESIAN_POINT('Origin',(4.22340945614509,0.,0.));
#307=CARTESIAN_POINT('',(3.74044654300056,-22.8705904774487,-2.80083954228175E-15));
#308=CARTESIAN_POINT('Origin',(3.74044654300056,0.,-3.50104942785219E-15));
#309=CARTESIAN_POINT('Origin',(3.74044654300056,0.,-3.50104942785219E-15));
#310=CARTESIAN_POINT('Origin',(3.16987298107781,0.,0.));
#311=CARTESIAN_POINT('',(2.59929941915505,-27.1294095225513,-3.32239445345501E-15));
#312=CARTESIAN_POINT('',(3.16987298107781,-25.,-3.06161699786838E-15));
#313=CARTESIAN_POINT('',(2.59929941915505,27.1294095225513,-8.30598613363753E-15));
#314=CARTESIAN_POINT('Origin',(2.59929941915505,0.,-4.15299306681877E-15));
#315=CARTESIAN_POINT('',(2.59929941915505,-3.32239445345501E-15,27.1294095225513));
#316=CARTESIAN_POINT('Origin',(2.59929941915505,0.,-4.15299306681877E-15));
#317=CARTESIAN_POINT('Origin',(2.59929941915505,0.,-4.15299306681877E-15));
#318=CARTESIAN_POINT('Origin',(16.9198729810778,0.,0.));
#319=CARTESIAN_POINT('',(30.,22.5,0.));
#320=CARTESIAN_POINT('',(30.,-22.5,-2.75545529808154E-15));
#321=CARTESIAN_POINT('Origin',(30.,0.,0.));
#322=CARTESIAN_POINT('Origin',(30.,0.,0.));
#323=CARTESIAN_POINT('',(16.9198729810778,-22.5,-2.75545529808154E-15));
#324=CARTESIAN_POINT('Origin',(2.11633650601052,0.,0.));
#325=CARTESIAN_POINT('',(2.11633650601052,-3.36777869765522E-15,27.5));
#326=CARTESIAN_POINT('Origin',(2.11633650601052,-3.30654635769785E-15,27.));
#327=CARTESIAN_POINT('',(2.11633650601052,-27.5,-3.36777869765522E-15));
#328=CARTESIAN_POINT('Origin',(2.11633650601052,0.,0.));
#329=CARTESIAN_POINT('',(2.11633650601052,27.5,-1.68388934882761E-15));
#330=CARTESIAN_POINT('Origin',(2.11633650601052,0.,0.));
#331=CARTESIAN_POINT('Origin',(2.11633650601052,0.,0.));
#332=CARTESIAN_POINT('Origin',(1.25,0.,0.));
#333=CARTESIAN_POINT('',(0.,-27.5,-3.36777869765522E-15));
#334=CARTESIAN_POINT('',(1.25,-27.5,-3.36777869765522E-15));
#335=CARTESIAN_POINT('',(0.,27.5,0.));
#336=CARTESIAN_POINT('Origin',(0.,0.,0.));
#337=CARTESIAN_POINT('Origin',(0.,0.,0.));
#338=CARTESIAN_POINT('Origin',(30.,20.5,0.));
#339=CARTESIAN_POINT('',(30.,20.5,0.));
#340=CARTESIAN_POINT('',(30.,-20.5,-2.51052593825208E-15));
#341=CARTESIAN_POINT('Origin',(30.,0.,0.));
#342=CARTESIAN_POINT('Origin',(30.,0.,0.));
#343=CARTESIAN_POINT('Origin',(15.,0.,0.));
#344=CARTESIAN_POINT('',(0.,-20.5,-2.51052593825208E-15));
#345=CARTESIAN_POINT('',(15.,-20.5,-2.51052593825208E-15));
#346=CARTESIAN_POINT('',(0.,20.5,0.));
#347=CARTESIAN_POINT('Origin',(0.,0.,0.));
#348=CARTESIAN_POINT('Origin',(0.,0.,0.));
#349=CARTESIAN_POINT('Origin',(0.,27.5,0.));
#350=UNCERTAINTY_MEASURE_WITH_UNIT(LENGTH_MEASURE(0.01),#354,
'DISTANCE_ACCURACY_VALUE',
'Maximum model space distance between geometric entities at asserted c
onnectivities');
#351=UNCERTAINTY_MEASURE_WITH_UNIT(LENGTH_MEASURE(0.01),#354,
'DISTANCE_ACCURACY_VALUE',
'Maximum model space distance between geometric entities at asserted c
onnectivities');
#352=(
GEOMETRIC_REPRESENTATION_CONTEXT(3)
GLOBAL_UNCERTAINTY_ASSIGNED_CONTEXT((#350))
GLOBAL_UNIT_ASSIGNED_CONTEXT((#354,#357,#356))
REPRESENTATION_CONTEXT('','3D')
);
#353=(
GEOMETRIC_REPRESENTATION_CONTEXT(3)
GLOBAL_UNCERTAINTY_ASSIGNED_CONTEXT((#351))
GLOBAL_UNIT_ASSIGNED_CONTEXT((#354,#357,#356))
REPRESENTATION_CONTEXT('','3D')
);
#354=(
LENGTH_UNIT()
NAMED_UNIT(*)
SI_UNIT(.MILLI.,.METRE.)
);
#355=(
LENGTH_UNIT()
NAMED_UNIT(*)
SI_UNIT(.CENTI.,.METRE.)
);
#356=(
NAMED_UNIT(*)
SI_UNIT($,.STERADIAN.)
SOLID_ANGLE_UNIT()
);
#357=(
NAMED_UNIT(*)
PLANE_ANGLE_UNIT()
SI_UNIT($,.RADIAN.)
);
#358=SHAPE_DEFINITION_REPRESENTATION(#359,#360);
#359=PRODUCT_DEFINITION_SHAPE('',$,#362);
#360=SHAPE_REPRESENTATION('',(#198),#352);
#361=PRODUCT_DEFINITION_CONTEXT('part definition',#366,'design');
#362=PRODUCT_DEFINITION('FL-SHN40KF-45','FL-SHN40KF-45',#363,#361);
#363=PRODUCT_DEFINITION_FORMATION('',$,#368);
#364=PRODUCT_RELATED_PRODUCT_CATEGORY('FL-SHN40KF-45','FL-SHN40KF-45',(#368));
#365=APPLICATION_PROTOCOL_DEFINITION('international standard',
'automotive_design',2009,#366);
#366=APPLICATION_CONTEXT(
'Core Data for Automotive Mechanical Design Process');
#367=PRODUCT_CONTEXT('part definition',#366,'mechanical');
#368=PRODUCT('FL-SHN40KF-45','FL-SHN40KF-45',$,(#367));
#369=PRESENTATION_STYLE_ASSIGNMENT((#370));
#370=SURFACE_STYLE_USAGE(.BOTH.,#371);
#371=SURFACE_SIDE_STYLE('',(#372));
#372=SURFACE_STYLE_FILL_AREA(#373);
#373=FILL_AREA_STYLE('',(#374));
#374=FILL_AREA_STYLE_COLOUR('',#375);
#375=COLOUR_RGB('',0.745098039215686,0.737254901960784,0.729411764705882);
ENDSEC;
END-ISO-10303-21;
