ISO-10303-21;
HEADER;
/* Generated by software containing ST-Developer
 * from STEP Tools, Inc. (www.steptools.com) 
 */

FILE_DESCRIPTION(
/* description */ (''),
/* implementation_level */ '2;1');

FILE_NAME(
/* name */ 
'G:\\FLANGES & FITTINGS\\Half Nipples\\Step files\\FL-SHN16KF-20.stp',
/* time_stamp */ '2018-07-24T15:53:20+01:00',
/* author */ ('paul'),
/* organization */ (''),
/* preprocessor_version */ 'ST-DEVELOPER v17',
/* originating_system */ 'Autodesk Inventor 2019',
/* authorisation */ '');

FILE_SCHEMA (('AUTOMOTIVE_DESIGN { 1 0 10303 214 3 1 1 }'));
ENDSEC;

DATA;
#10=MECHANICAL_DESIGN_GEOMETRIC_PRESENTATION_REPRESENTATION('',(#13),#306);
#11=SHAPE_REPRESENTATION_RELATIONSHIP('SRR','None',#313,#12);
#12=ADVANCED_BREP_SHAPE_REPRESENTATION('',(#14),#305);
#13=STYLED_ITEM('',(#322),#14);
#14=MANIFOLD_SOLID_BREP('Solid1',#158);
#15=FACE_BOUND('',#34,.T.);
#16=FACE_BOUND('',#37,.T.);
#17=FACE_BOUND('',#40,.T.);
#18=PLANE('',#189);
#19=PLANE('',#195);
#20=PLANE('',#201);
#21=CONICAL_SURFACE('',#183,12.5,1.30899693899575);
#22=FACE_OUTER_BOUND('',#30,.T.);
#23=FACE_OUTER_BOUND('',#31,.T.);
#24=FACE_OUTER_BOUND('',#32,.T.);
#25=FACE_OUTER_BOUND('',#33,.T.);
#26=FACE_OUTER_BOUND('',#35,.T.);
#27=FACE_OUTER_BOUND('',#36,.T.);
#28=FACE_OUTER_BOUND('',#38,.T.);
#29=FACE_OUTER_BOUND('',#39,.T.);
#30=EDGE_LOOP('',(#104,#105,#106,#107,#108,#109));
#31=EDGE_LOOP('',(#110,#111,#112,#113,#114,#115));
#32=EDGE_LOOP('',(#116,#117,#118,#119,#120,#121));
#33=EDGE_LOOP('',(#122,#123));
#34=EDGE_LOOP('',(#124,#125));
#35=EDGE_LOOP('',(#126,#127,#128,#129,#130,#131));
#36=EDGE_LOOP('',(#132,#133));
#37=EDGE_LOOP('',(#134,#135));
#38=EDGE_LOOP('',(#136,#137,#138,#139,#140,#141));
#39=EDGE_LOOP('',(#142,#143));
#40=EDGE_LOOP('',(#144,#145));
#41=LINE('',#264,#46);
#42=LINE('',#273,#47);
#43=LINE('',#279,#48);
#44=LINE('',#287,#49);
#45=LINE('',#298,#50);
#46=VECTOR('',#210,15.);
#47=VECTOR('',#221,12.5);
#48=VECTOR('',#228,10.);
#49=VECTOR('',#237,8.);
#50=VECTOR('',#250,8.6);
#51=CIRCLE('',#179,15.);
#52=CIRCLE('',#180,15.);
#53=CIRCLE('',#181,15.);
#54=CIRCLE('',#182,15.);
#55=CIRCLE('',#184,10.);
#56=CIRCLE('',#185,10.);
#57=CIRCLE('',#187,10.);
#58=CIRCLE('',#188,10.);
#59=CIRCLE('',#190,8.00000000000001);
#60=CIRCLE('',#191,8.00000000000001);
#61=CIRCLE('',#193,8.);
#62=CIRCLE('',#194,8.);
#63=CIRCLE('',#196,8.6);
#64=CIRCLE('',#197,8.6);
#65=CIRCLE('',#199,8.6);
#66=CIRCLE('',#200,8.6);
#67=VERTEX_POINT('',#259);
#68=VERTEX_POINT('',#260);
#69=VERTEX_POINT('',#263);
#70=VERTEX_POINT('',#265);
#71=VERTEX_POINT('',#269);
#72=VERTEX_POINT('',#270);
#73=VERTEX_POINT('',#275);
#74=VERTEX_POINT('',#276);
#75=VERTEX_POINT('',#281);
#76=VERTEX_POINT('',#282);
#77=VERTEX_POINT('',#286);
#78=VERTEX_POINT('',#288);
#79=VERTEX_POINT('',#292);
#80=VERTEX_POINT('',#293);
#81=VERTEX_POINT('',#297);
#82=VERTEX_POINT('',#299);
#83=EDGE_CURVE('',#67,#68,#51,.T.);
#84=EDGE_CURVE('',#68,#67,#52,.T.);
#85=EDGE_CURVE('',#68,#69,#41,.T.);
#86=EDGE_CURVE('',#69,#70,#53,.T.);
#87=EDGE_CURVE('',#70,#69,#54,.T.);
#88=EDGE_CURVE('',#71,#72,#55,.T.);
#89=EDGE_CURVE('',#72,#71,#56,.T.);
#90=EDGE_CURVE('',#72,#68,#42,.T.);
#91=EDGE_CURVE('',#73,#74,#57,.T.);
#92=EDGE_CURVE('',#74,#73,#58,.T.);
#93=EDGE_CURVE('',#74,#72,#43,.T.);
#94=EDGE_CURVE('',#75,#76,#59,.T.);
#95=EDGE_CURVE('',#76,#75,#60,.T.);
#96=EDGE_CURVE('',#76,#77,#44,.T.);
#97=EDGE_CURVE('',#78,#77,#61,.T.);
#98=EDGE_CURVE('',#77,#78,#62,.T.);
#99=EDGE_CURVE('',#79,#80,#63,.T.);
#100=EDGE_CURVE('',#80,#79,#64,.T.);
#101=EDGE_CURVE('',#80,#81,#45,.T.);
#102=EDGE_CURVE('',#82,#81,#65,.T.);
#103=EDGE_CURVE('',#81,#82,#66,.T.);
#104=ORIENTED_EDGE('',*,*,#83,.F.);
#105=ORIENTED_EDGE('',*,*,#84,.F.);
#106=ORIENTED_EDGE('',*,*,#85,.T.);
#107=ORIENTED_EDGE('',*,*,#86,.T.);
#108=ORIENTED_EDGE('',*,*,#87,.T.);
#109=ORIENTED_EDGE('',*,*,#85,.F.);
#110=ORIENTED_EDGE('',*,*,#88,.F.);
#111=ORIENTED_EDGE('',*,*,#89,.F.);
#112=ORIENTED_EDGE('',*,*,#90,.T.);
#113=ORIENTED_EDGE('',*,*,#84,.T.);
#114=ORIENTED_EDGE('',*,*,#83,.T.);
#115=ORIENTED_EDGE('',*,*,#90,.F.);
#116=ORIENTED_EDGE('',*,*,#91,.F.);
#117=ORIENTED_EDGE('',*,*,#92,.F.);
#118=ORIENTED_EDGE('',*,*,#93,.T.);
#119=ORIENTED_EDGE('',*,*,#89,.T.);
#120=ORIENTED_EDGE('',*,*,#88,.T.);
#121=ORIENTED_EDGE('',*,*,#93,.F.);
#122=ORIENTED_EDGE('',*,*,#91,.T.);
#123=ORIENTED_EDGE('',*,*,#92,.T.);
#124=ORIENTED_EDGE('',*,*,#94,.F.);
#125=ORIENTED_EDGE('',*,*,#95,.F.);
#126=ORIENTED_EDGE('',*,*,#94,.T.);
#127=ORIENTED_EDGE('',*,*,#96,.T.);
#128=ORIENTED_EDGE('',*,*,#97,.F.);
#129=ORIENTED_EDGE('',*,*,#98,.F.);
#130=ORIENTED_EDGE('',*,*,#96,.F.);
#131=ORIENTED_EDGE('',*,*,#95,.T.);
#132=ORIENTED_EDGE('',*,*,#99,.F.);
#133=ORIENTED_EDGE('',*,*,#100,.F.);
#134=ORIENTED_EDGE('',*,*,#97,.T.);
#135=ORIENTED_EDGE('',*,*,#98,.T.);
#136=ORIENTED_EDGE('',*,*,#99,.T.);
#137=ORIENTED_EDGE('',*,*,#101,.T.);
#138=ORIENTED_EDGE('',*,*,#102,.F.);
#139=ORIENTED_EDGE('',*,*,#103,.F.);
#140=ORIENTED_EDGE('',*,*,#101,.F.);
#141=ORIENTED_EDGE('',*,*,#100,.T.);
#142=ORIENTED_EDGE('',*,*,#87,.F.);
#143=ORIENTED_EDGE('',*,*,#86,.F.);
#144=ORIENTED_EDGE('',*,*,#102,.T.);
#145=ORIENTED_EDGE('',*,*,#103,.T.);
#146=CYLINDRICAL_SURFACE('',#178,15.);
#147=CYLINDRICAL_SURFACE('',#186,10.);
#148=CYLINDRICAL_SURFACE('',#192,8.);
#149=CYLINDRICAL_SURFACE('',#198,8.6);
#150=ADVANCED_FACE('',(#22),#146,.T.);
#151=ADVANCED_FACE('',(#23),#21,.T.);
#152=ADVANCED_FACE('',(#24),#147,.T.);
#153=ADVANCED_FACE('',(#25,#15),#18,.T.);
#154=ADVANCED_FACE('',(#26),#148,.F.);
#155=ADVANCED_FACE('',(#27,#16),#19,.T.);
#156=ADVANCED_FACE('',(#28),#149,.F.);
#157=ADVANCED_FACE('',(#29,#17),#20,.T.);
#158=CLOSED_SHELL('',(#150,#151,#152,#153,#154,#155,#156,#157));
#159=DERIVED_UNIT_ELEMENT(#161,1.);
#160=DERIVED_UNIT_ELEMENT(#308,3.);
#161=(
MASS_UNIT()
NAMED_UNIT(*)
SI_UNIT($,.GRAM.)
);
#162=DERIVED_UNIT((#159,#160));
#163=MEASURE_REPRESENTATION_ITEM('density measure',
POSITIVE_RATIO_MEASURE(8.),#162);
#164=PROPERTY_DEFINITION_REPRESENTATION(#169,#166);
#165=PROPERTY_DEFINITION_REPRESENTATION(#170,#167);
#166=REPRESENTATION('material name',(#168),#305);
#167=REPRESENTATION('density',(#163),#305);
#168=DESCRIPTIVE_REPRESENTATION_ITEM('Stainless Steel AISI 304',
'Stainless Steel AISI 304');
#169=PROPERTY_DEFINITION('material property','material name',#315);
#170=PROPERTY_DEFINITION('material property','density of part',#315);
#171=DATE_TIME_ROLE('creation_date');
#172=APPLIED_DATE_AND_TIME_ASSIGNMENT(#173,#171,(#315));
#173=DATE_AND_TIME(#174,#175);
#174=CALENDAR_DATE(2014,20,11);
#175=LOCAL_TIME(11,0,44.,#176);
#176=COORDINATED_UNIVERSAL_TIME_OFFSET(0,0,.BEHIND.);
#177=AXIS2_PLACEMENT_3D('placement',#257,#202,#203);
#178=AXIS2_PLACEMENT_3D('',#258,#204,#205);
#179=AXIS2_PLACEMENT_3D('',#261,#206,#207);
#180=AXIS2_PLACEMENT_3D('',#262,#208,#209);
#181=AXIS2_PLACEMENT_3D('',#266,#211,#212);
#182=AXIS2_PLACEMENT_3D('',#267,#213,#214);
#183=AXIS2_PLACEMENT_3D('',#268,#215,#216);
#184=AXIS2_PLACEMENT_3D('',#271,#217,#218);
#185=AXIS2_PLACEMENT_3D('',#272,#219,#220);
#186=AXIS2_PLACEMENT_3D('',#274,#222,#223);
#187=AXIS2_PLACEMENT_3D('',#277,#224,#225);
#188=AXIS2_PLACEMENT_3D('',#278,#226,#227);
#189=AXIS2_PLACEMENT_3D('',#280,#229,#230);
#190=AXIS2_PLACEMENT_3D('',#283,#231,#232);
#191=AXIS2_PLACEMENT_3D('',#284,#233,#234);
#192=AXIS2_PLACEMENT_3D('',#285,#235,#236);
#193=AXIS2_PLACEMENT_3D('',#289,#238,#239);
#194=AXIS2_PLACEMENT_3D('',#290,#240,#241);
#195=AXIS2_PLACEMENT_3D('',#291,#242,#243);
#196=AXIS2_PLACEMENT_3D('',#294,#244,#245);
#197=AXIS2_PLACEMENT_3D('',#295,#246,#247);
#198=AXIS2_PLACEMENT_3D('',#296,#248,#249);
#199=AXIS2_PLACEMENT_3D('',#300,#251,#252);
#200=AXIS2_PLACEMENT_3D('',#301,#253,#254);
#201=AXIS2_PLACEMENT_3D('',#302,#255,#256);
#202=DIRECTION('axis',(0.,0.,1.));
#203=DIRECTION('refdir',(1.,0.,0.));
#204=DIRECTION('center_axis',(0.,1.,0.));
#205=DIRECTION('ref_axis',(-1.,0.,0.));
#206=DIRECTION('center_axis',(0.,1.,0.));
#207=DIRECTION('ref_axis',(1.,0.,0.));
#208=DIRECTION('center_axis',(0.,1.,0.));
#209=DIRECTION('ref_axis',(1.,0.,0.));
#210=DIRECTION('',(0.,-1.,0.));
#211=DIRECTION('center_axis',(0.,1.,0.));
#212=DIRECTION('ref_axis',(1.,0.,0.));
#213=DIRECTION('center_axis',(0.,1.,0.));
#214=DIRECTION('ref_axis',(1.,0.,0.));
#215=DIRECTION('center_axis',(0.,-1.,0.));
#216=DIRECTION('ref_axis',(-1.,0.,0.));
#217=DIRECTION('center_axis',(0.,1.,0.));
#218=DIRECTION('ref_axis',(1.,0.,0.));
#219=DIRECTION('center_axis',(0.,1.,0.));
#220=DIRECTION('ref_axis',(1.,0.,0.));
#221=DIRECTION('',(0.965925826289068,-0.258819045102521,-1.18291797137867E-16));
#222=DIRECTION('center_axis',(0.,1.,0.));
#223=DIRECTION('ref_axis',(-1.,0.,0.));
#224=DIRECTION('center_axis',(0.,1.,0.));
#225=DIRECTION('ref_axis',(1.,0.,0.));
#226=DIRECTION('center_axis',(0.,1.,0.));
#227=DIRECTION('ref_axis',(1.,0.,0.));
#228=DIRECTION('',(0.,-1.,0.));
#229=DIRECTION('center_axis',(0.,1.,0.));
#230=DIRECTION('ref_axis',(0.,0.,1.));
#231=DIRECTION('center_axis',(0.,1.,0.));
#232=DIRECTION('ref_axis',(1.,0.,0.));
#233=DIRECTION('center_axis',(0.,1.,0.));
#234=DIRECTION('ref_axis',(1.,0.,0.));
#235=DIRECTION('center_axis',(0.,1.,0.));
#236=DIRECTION('ref_axis',(-1.,0.,0.));
#237=DIRECTION('',(0.,-1.,0.));
#238=DIRECTION('center_axis',(0.,1.,0.));
#239=DIRECTION('ref_axis',(1.,0.,0.));
#240=DIRECTION('center_axis',(0.,1.,0.));
#241=DIRECTION('ref_axis',(1.,0.,0.));
#242=DIRECTION('center_axis',(0.,-1.,0.));
#243=DIRECTION('ref_axis',(0.,0.,-1.));
#244=DIRECTION('center_axis',(0.,1.,0.));
#245=DIRECTION('ref_axis',(1.,0.,0.));
#246=DIRECTION('center_axis',(0.,1.,0.));
#247=DIRECTION('ref_axis',(1.,0.,0.));
#248=DIRECTION('center_axis',(0.,1.,0.));
#249=DIRECTION('ref_axis',(-1.,0.,0.));
#250=DIRECTION('',(0.,-1.,0.));
#251=DIRECTION('center_axis',(0.,1.,0.));
#252=DIRECTION('ref_axis',(1.,0.,0.));
#253=DIRECTION('center_axis',(0.,1.,0.));
#254=DIRECTION('ref_axis',(1.,0.,0.));
#255=DIRECTION('center_axis',(0.,-1.,0.));
#256=DIRECTION('ref_axis',(0.,0.,-1.));
#257=CARTESIAN_POINT('',(0.,0.,0.));
#258=CARTESIAN_POINT('Origin',(0.,1.5,0.));
#259=CARTESIAN_POINT('',(-15.,3.,0.));
#260=CARTESIAN_POINT('',(15.,3.,-1.83697019872103E-15));
#261=CARTESIAN_POINT('Origin',(0.,3.,0.));
#262=CARTESIAN_POINT('Origin',(0.,3.,0.));
#263=CARTESIAN_POINT('',(15.,0.,-1.83697019872103E-15));
#264=CARTESIAN_POINT('',(15.,1.5,-1.83697019872103E-15));
#265=CARTESIAN_POINT('',(-15.,0.,0.));
#266=CARTESIAN_POINT('Origin',(0.,0.,0.));
#267=CARTESIAN_POINT('Origin',(0.,0.,0.));
#268=CARTESIAN_POINT('Origin',(0.,3.66987298107781,0.));
#269=CARTESIAN_POINT('',(-10.,4.33974596215561,0.));
#270=CARTESIAN_POINT('',(10.,4.33974596215561,-1.22464679914735E-15));
#271=CARTESIAN_POINT('Origin',(0.,4.33974596215561,0.));
#272=CARTESIAN_POINT('Origin',(0.,4.33974596215561,0.));
#273=CARTESIAN_POINT('',(12.5,3.66987298107781,-1.53080849893419E-15));
#274=CARTESIAN_POINT('Origin',(0.,17.1698729810778,0.));
#275=CARTESIAN_POINT('',(-10.,30.,0.));
#276=CARTESIAN_POINT('',(10.,30.,-1.22464679914735E-15));
#277=CARTESIAN_POINT('Origin',(0.,30.,0.));
#278=CARTESIAN_POINT('Origin',(0.,30.,0.));
#279=CARTESIAN_POINT('',(10.,17.1698729810778,-1.22464679914735E-15));
#280=CARTESIAN_POINT('Origin',(-8.00000000000001,30.,0.));
#281=CARTESIAN_POINT('',(-8.00000000000001,30.,0.));
#282=CARTESIAN_POINT('',(8.,30.,-9.79717439317883E-16));
#283=CARTESIAN_POINT('Origin',(0.,30.,0.));
#284=CARTESIAN_POINT('Origin',(0.,30.,0.));
#285=CARTESIAN_POINT('Origin',(0.,16.25,0.));
#286=CARTESIAN_POINT('',(8.,2.5,-9.79717439317883E-16));
#287=CARTESIAN_POINT('',(8.,16.25,-9.79717439317883E-16));
#288=CARTESIAN_POINT('',(-8.,2.5,0.));
#289=CARTESIAN_POINT('Origin',(0.,2.5,0.));
#290=CARTESIAN_POINT('Origin',(0.,2.5,0.));
#291=CARTESIAN_POINT('Origin',(-8.6,2.5,0.));
#292=CARTESIAN_POINT('',(-8.6,2.5,0.));
#293=CARTESIAN_POINT('',(8.6,2.5,-1.05319624726672E-15));
#294=CARTESIAN_POINT('Origin',(0.,2.5,0.));
#295=CARTESIAN_POINT('Origin',(0.,2.5,0.));
#296=CARTESIAN_POINT('Origin',(0.,1.25,0.));
#297=CARTESIAN_POINT('',(8.6,0.,-1.05319624726672E-15));
#298=CARTESIAN_POINT('',(8.6,1.25,-1.05319624726672E-15));
#299=CARTESIAN_POINT('',(-8.6,0.,0.));
#300=CARTESIAN_POINT('Origin',(0.,0.,0.));
#301=CARTESIAN_POINT('Origin',(0.,0.,0.));
#302=CARTESIAN_POINT('Origin',(-15.,0.,0.));
#303=UNCERTAINTY_MEASURE_WITH_UNIT(LENGTH_MEASURE(0.01),#307,
'DISTANCE_ACCURACY_VALUE',
'Maximum model space distance between geometric entities at asserted c
onnectivities');
#304=UNCERTAINTY_MEASURE_WITH_UNIT(LENGTH_MEASURE(0.01),#307,
'DISTANCE_ACCURACY_VALUE',
'Maximum model space distance between geometric entities at asserted c
onnectivities');
#305=(
GEOMETRIC_REPRESENTATION_CONTEXT(3)
GLOBAL_UNCERTAINTY_ASSIGNED_CONTEXT((#303))
GLOBAL_UNIT_ASSIGNED_CONTEXT((#307,#310,#309))
REPRESENTATION_CONTEXT('','3D')
);
#306=(
GEOMETRIC_REPRESENTATION_CONTEXT(3)
GLOBAL_UNCERTAINTY_ASSIGNED_CONTEXT((#304))
GLOBAL_UNIT_ASSIGNED_CONTEXT((#307,#310,#309))
REPRESENTATION_CONTEXT('','3D')
);
#307=(
LENGTH_UNIT()
NAMED_UNIT(*)
SI_UNIT(.MILLI.,.METRE.)
);
#308=(
LENGTH_UNIT()
NAMED_UNIT(*)
SI_UNIT(.CENTI.,.METRE.)
);
#309=(
NAMED_UNIT(*)
SI_UNIT($,.STERADIAN.)
SOLID_ANGLE_UNIT()
);
#310=(
NAMED_UNIT(*)
PLANE_ANGLE_UNIT()
SI_UNIT($,.RADIAN.)
);
#311=SHAPE_DEFINITION_REPRESENTATION(#312,#313);
#312=PRODUCT_DEFINITION_SHAPE('',$,#315);
#313=SHAPE_REPRESENTATION('',(#177),#305);
#314=PRODUCT_DEFINITION_CONTEXT('part definition',#319,'design');
#315=PRODUCT_DEFINITION('FL-SHN16KF-20','FL-SHN16KF-20',#316,#314);
#316=PRODUCT_DEFINITION_FORMATION('',$,#321);
#317=PRODUCT_RELATED_PRODUCT_CATEGORY('FL-SHN16KF-20','FL-SHN16KF-20',(#321));
#318=APPLICATION_PROTOCOL_DEFINITION('international standard',
'automotive_design',2009,#319);
#319=APPLICATION_CONTEXT(
'Core Data for Automotive Mechanical Design Process');
#320=PRODUCT_CONTEXT('part definition',#319,'mechanical');
#321=PRODUCT('FL-SHN16KF-20','FL-SHN16KF-20',$,(#320));
#322=PRESENTATION_STYLE_ASSIGNMENT((#323));
#323=SURFACE_STYLE_USAGE(.BOTH.,#324);
#324=SURFACE_SIDE_STYLE('',(#325));
#325=SURFACE_STYLE_FILL_AREA(#326);
#326=FILL_AREA_STYLE('',(#327));
#327=FILL_AREA_STYLE_COLOUR('',#328);
#328=COLOUR_RGB('',0.745098039215686,0.737254901960784,0.729411764705882);
ENDSEC;
END-ISO-10303-21;
