ISO-10303-21;
HEADER;
/* Generated by software containing ST-Developer
 * from STEP Tools, Inc. (www.steptools.com) 
 */

FILE_DESCRIPTION(
/* description */ (''),
/* implementation_level */ '2;1');

FILE_NAME(
/* name */ 
'G:\\FLANGES & FITTINGS\\Half Nipples\\Step files\\FL-SHN16KF-19.stp',
/* time_stamp */ '2018-07-24T12:51:41+01:00',
/* author */ ('paul'),
/* organization */ (''),
/* preprocessor_version */ 'ST-DEVELOPER v17',
/* originating_system */ 'Autodesk Inventor 2019',
/* authorisation */ '');

FILE_SCHEMA (('AUTOMOTIVE_DESIGN { 1 0 10303 214 3 1 1 }'));
ENDSEC;

DATA;
#10=MECHANICAL_DESIGN_GEOMETRIC_PRESENTATION_REPRESENTATION('',(#13),#241);
#11=SHAPE_REPRESENTATION_RELATIONSHIP('SRR','None',#248,#12);
#12=ADVANCED_BREP_SHAPE_REPRESENTATION('',(#14),#240);
#13=STYLED_ITEM('',(#257),#14);
#14=MANIFOLD_SOLID_BREP('Solid1',#123);
#15=FACE_BOUND('',#30,.T.);
#16=FACE_BOUND('',#33,.T.);
#17=PLANE('',#154);
#18=PLANE('',#160);
#19=CONICAL_SURFACE('',#148,12.275,1.30899693899575);
#20=FACE_OUTER_BOUND('',#26,.T.);
#21=FACE_OUTER_BOUND('',#27,.T.);
#22=FACE_OUTER_BOUND('',#28,.T.);
#23=FACE_OUTER_BOUND('',#29,.T.);
#24=FACE_OUTER_BOUND('',#31,.T.);
#25=FACE_OUTER_BOUND('',#32,.T.);
#26=EDGE_LOOP('',(#82,#83,#84,#85,#86,#87));
#27=EDGE_LOOP('',(#88,#89,#90,#91,#92,#93));
#28=EDGE_LOOP('',(#94,#95,#96,#97,#98,#99));
#29=EDGE_LOOP('',(#100,#101));
#30=EDGE_LOOP('',(#102,#103));
#31=EDGE_LOOP('',(#104,#105,#106,#107,#108,#109));
#32=EDGE_LOOP('',(#110,#111));
#33=EDGE_LOOP('',(#112,#113));
#34=LINE('',#210,#38);
#35=LINE('',#219,#39);
#36=LINE('',#225,#40);
#37=LINE('',#233,#41);
#38=VECTOR('',#169,15.);
#39=VECTOR('',#180,12.275);
#40=VECTOR('',#187,9.55);
#41=VECTOR('',#196,8.6);
#42=CIRCLE('',#144,15.);
#43=CIRCLE('',#145,15.);
#44=CIRCLE('',#146,15.);
#45=CIRCLE('',#147,15.);
#46=CIRCLE('',#149,9.55);
#47=CIRCLE('',#150,9.55);
#48=CIRCLE('',#152,9.55);
#49=CIRCLE('',#153,9.55);
#50=CIRCLE('',#155,8.6);
#51=CIRCLE('',#156,8.6);
#52=CIRCLE('',#158,8.6);
#53=CIRCLE('',#159,8.6);
#54=VERTEX_POINT('',#205);
#55=VERTEX_POINT('',#206);
#56=VERTEX_POINT('',#209);
#57=VERTEX_POINT('',#211);
#58=VERTEX_POINT('',#215);
#59=VERTEX_POINT('',#216);
#60=VERTEX_POINT('',#221);
#61=VERTEX_POINT('',#222);
#62=VERTEX_POINT('',#227);
#63=VERTEX_POINT('',#228);
#64=VERTEX_POINT('',#232);
#65=VERTEX_POINT('',#234);
#66=EDGE_CURVE('',#54,#55,#42,.T.);
#67=EDGE_CURVE('',#55,#54,#43,.T.);
#68=EDGE_CURVE('',#55,#56,#34,.T.);
#69=EDGE_CURVE('',#56,#57,#44,.T.);
#70=EDGE_CURVE('',#57,#56,#45,.T.);
#71=EDGE_CURVE('',#58,#59,#46,.T.);
#72=EDGE_CURVE('',#59,#58,#47,.T.);
#73=EDGE_CURVE('',#59,#55,#35,.T.);
#74=EDGE_CURVE('',#60,#61,#48,.T.);
#75=EDGE_CURVE('',#61,#60,#49,.T.);
#76=EDGE_CURVE('',#61,#59,#36,.T.);
#77=EDGE_CURVE('',#62,#63,#50,.T.);
#78=EDGE_CURVE('',#63,#62,#51,.T.);
#79=EDGE_CURVE('',#63,#64,#37,.T.);
#80=EDGE_CURVE('',#65,#64,#52,.T.);
#81=EDGE_CURVE('',#64,#65,#53,.T.);
#82=ORIENTED_EDGE('',*,*,#66,.F.);
#83=ORIENTED_EDGE('',*,*,#67,.F.);
#84=ORIENTED_EDGE('',*,*,#68,.T.);
#85=ORIENTED_EDGE('',*,*,#69,.T.);
#86=ORIENTED_EDGE('',*,*,#70,.T.);
#87=ORIENTED_EDGE('',*,*,#68,.F.);
#88=ORIENTED_EDGE('',*,*,#71,.F.);
#89=ORIENTED_EDGE('',*,*,#72,.F.);
#90=ORIENTED_EDGE('',*,*,#73,.T.);
#91=ORIENTED_EDGE('',*,*,#67,.T.);
#92=ORIENTED_EDGE('',*,*,#66,.T.);
#93=ORIENTED_EDGE('',*,*,#73,.F.);
#94=ORIENTED_EDGE('',*,*,#74,.F.);
#95=ORIENTED_EDGE('',*,*,#75,.F.);
#96=ORIENTED_EDGE('',*,*,#76,.T.);
#97=ORIENTED_EDGE('',*,*,#72,.T.);
#98=ORIENTED_EDGE('',*,*,#71,.T.);
#99=ORIENTED_EDGE('',*,*,#76,.F.);
#100=ORIENTED_EDGE('',*,*,#74,.T.);
#101=ORIENTED_EDGE('',*,*,#75,.T.);
#102=ORIENTED_EDGE('',*,*,#77,.F.);
#103=ORIENTED_EDGE('',*,*,#78,.F.);
#104=ORIENTED_EDGE('',*,*,#77,.T.);
#105=ORIENTED_EDGE('',*,*,#79,.T.);
#106=ORIENTED_EDGE('',*,*,#80,.F.);
#107=ORIENTED_EDGE('',*,*,#81,.F.);
#108=ORIENTED_EDGE('',*,*,#79,.F.);
#109=ORIENTED_EDGE('',*,*,#78,.T.);
#110=ORIENTED_EDGE('',*,*,#70,.F.);
#111=ORIENTED_EDGE('',*,*,#69,.F.);
#112=ORIENTED_EDGE('',*,*,#80,.T.);
#113=ORIENTED_EDGE('',*,*,#81,.T.);
#114=CYLINDRICAL_SURFACE('',#143,15.);
#115=CYLINDRICAL_SURFACE('',#151,9.55);
#116=CYLINDRICAL_SURFACE('',#157,8.6);
#117=ADVANCED_FACE('',(#20),#114,.T.);
#118=ADVANCED_FACE('',(#21),#19,.T.);
#119=ADVANCED_FACE('',(#22),#115,.T.);
#120=ADVANCED_FACE('',(#23,#15),#17,.T.);
#121=ADVANCED_FACE('',(#24),#116,.F.);
#122=ADVANCED_FACE('',(#25,#16),#18,.T.);
#123=CLOSED_SHELL('',(#117,#118,#119,#120,#121,#122));
#124=DERIVED_UNIT_ELEMENT(#126,1.);
#125=DERIVED_UNIT_ELEMENT(#243,3.);
#126=(
MASS_UNIT()
NAMED_UNIT(*)
SI_UNIT($,.GRAM.)
);
#127=DERIVED_UNIT((#124,#125));
#128=MEASURE_REPRESENTATION_ITEM('density measure',
POSITIVE_RATIO_MEASURE(8.),#127);
#129=PROPERTY_DEFINITION_REPRESENTATION(#134,#131);
#130=PROPERTY_DEFINITION_REPRESENTATION(#135,#132);
#131=REPRESENTATION('material name',(#133),#240);
#132=REPRESENTATION('density',(#128),#240);
#133=DESCRIPTIVE_REPRESENTATION_ITEM('Stainless Steel AISI 304',
'Stainless Steel AISI 304');
#134=PROPERTY_DEFINITION('material property','material name',#250);
#135=PROPERTY_DEFINITION('material property','density of part',#250);
#136=DATE_TIME_ROLE('creation_date');
#137=APPLIED_DATE_AND_TIME_ASSIGNMENT(#138,#136,(#250));
#138=DATE_AND_TIME(#139,#140);
#139=CALENDAR_DATE(2014,20,11);
#140=LOCAL_TIME(11,0,44.,#141);
#141=COORDINATED_UNIVERSAL_TIME_OFFSET(0,0,.BEHIND.);
#142=AXIS2_PLACEMENT_3D('placement',#203,#161,#162);
#143=AXIS2_PLACEMENT_3D('',#204,#163,#164);
#144=AXIS2_PLACEMENT_3D('',#207,#165,#166);
#145=AXIS2_PLACEMENT_3D('',#208,#167,#168);
#146=AXIS2_PLACEMENT_3D('',#212,#170,#171);
#147=AXIS2_PLACEMENT_3D('',#213,#172,#173);
#148=AXIS2_PLACEMENT_3D('',#214,#174,#175);
#149=AXIS2_PLACEMENT_3D('',#217,#176,#177);
#150=AXIS2_PLACEMENT_3D('',#218,#178,#179);
#151=AXIS2_PLACEMENT_3D('',#220,#181,#182);
#152=AXIS2_PLACEMENT_3D('',#223,#183,#184);
#153=AXIS2_PLACEMENT_3D('',#224,#185,#186);
#154=AXIS2_PLACEMENT_3D('',#226,#188,#189);
#155=AXIS2_PLACEMENT_3D('',#229,#190,#191);
#156=AXIS2_PLACEMENT_3D('',#230,#192,#193);
#157=AXIS2_PLACEMENT_3D('',#231,#194,#195);
#158=AXIS2_PLACEMENT_3D('',#235,#197,#198);
#159=AXIS2_PLACEMENT_3D('',#236,#199,#200);
#160=AXIS2_PLACEMENT_3D('',#237,#201,#202);
#161=DIRECTION('axis',(0.,0.,1.));
#162=DIRECTION('refdir',(1.,0.,0.));
#163=DIRECTION('center_axis',(0.,1.,0.));
#164=DIRECTION('ref_axis',(-1.,0.,0.));
#165=DIRECTION('center_axis',(0.,1.,0.));
#166=DIRECTION('ref_axis',(1.,0.,0.));
#167=DIRECTION('center_axis',(0.,1.,0.));
#168=DIRECTION('ref_axis',(1.,0.,0.));
#169=DIRECTION('',(0.,-1.,0.));
#170=DIRECTION('center_axis',(0.,1.,0.));
#171=DIRECTION('ref_axis',(1.,0.,0.));
#172=DIRECTION('center_axis',(0.,1.,0.));
#173=DIRECTION('ref_axis',(1.,0.,0.));
#174=DIRECTION('center_axis',(0.,-1.,0.));
#175=DIRECTION('ref_axis',(-1.,0.,0.));
#176=DIRECTION('center_axis',(0.,1.,0.));
#177=DIRECTION('ref_axis',(1.,0.,0.));
#178=DIRECTION('center_axis',(0.,1.,0.));
#179=DIRECTION('ref_axis',(1.,0.,0.));
#180=DIRECTION('',(0.965925826289068,-0.258819045102521,-1.18291797137867E-16));
#181=DIRECTION('center_axis',(0.,1.,0.));
#182=DIRECTION('ref_axis',(-1.,0.,0.));
#183=DIRECTION('center_axis',(0.,1.,0.));
#184=DIRECTION('ref_axis',(1.,0.,0.));
#185=DIRECTION('center_axis',(0.,1.,0.));
#186=DIRECTION('ref_axis',(1.,0.,0.));
#187=DIRECTION('',(0.,-1.,0.));
#188=DIRECTION('center_axis',(0.,1.,0.));
#189=DIRECTION('ref_axis',(0.,0.,1.));
#190=DIRECTION('center_axis',(0.,1.,0.));
#191=DIRECTION('ref_axis',(1.,0.,0.));
#192=DIRECTION('center_axis',(0.,1.,0.));
#193=DIRECTION('ref_axis',(1.,0.,0.));
#194=DIRECTION('center_axis',(0.,1.,0.));
#195=DIRECTION('ref_axis',(-1.,0.,0.));
#196=DIRECTION('',(0.,-1.,0.));
#197=DIRECTION('center_axis',(0.,1.,0.));
#198=DIRECTION('ref_axis',(1.,0.,0.));
#199=DIRECTION('center_axis',(0.,1.,0.));
#200=DIRECTION('ref_axis',(1.,0.,0.));
#201=DIRECTION('center_axis',(0.,-1.,0.));
#202=DIRECTION('ref_axis',(0.,0.,-1.));
#203=CARTESIAN_POINT('',(0.,0.,0.));
#204=CARTESIAN_POINT('Origin',(0.,1.5,0.));
#205=CARTESIAN_POINT('',(-15.,3.,0.));
#206=CARTESIAN_POINT('',(15.,3.,-1.83697019872103E-15));
#207=CARTESIAN_POINT('Origin',(0.,3.,0.));
#208=CARTESIAN_POINT('Origin',(0.,3.,0.));
#209=CARTESIAN_POINT('',(15.,0.,-1.83697019872103E-15));
#210=CARTESIAN_POINT('',(15.,1.5,-1.83697019872103E-15));
#211=CARTESIAN_POINT('',(-15.,0.,0.));
#212=CARTESIAN_POINT('Origin',(0.,0.,0.));
#213=CARTESIAN_POINT('Origin',(0.,0.,0.));
#214=CARTESIAN_POINT('Origin',(0.,3.73016154937481,0.));
#215=CARTESIAN_POINT('',(-9.55,4.46032309874962,0.));
#216=CARTESIAN_POINT('',(9.55,4.46032309874962,-1.16953769318572E-15));
#217=CARTESIAN_POINT('Origin',(0.,4.46032309874962,0.));
#218=CARTESIAN_POINT('Origin',(0.,4.46032309874962,0.));
#219=CARTESIAN_POINT('',(12.275,3.73016154937481,-1.50325394595338E-15));
#220=CARTESIAN_POINT('Origin',(0.,8.58016154937481,0.));
#221=CARTESIAN_POINT('',(-9.55,12.7,0.));
#222=CARTESIAN_POINT('',(9.55,12.7,-1.16953769318572E-15));
#223=CARTESIAN_POINT('Origin',(0.,12.7,0.));
#224=CARTESIAN_POINT('Origin',(0.,12.7,0.));
#225=CARTESIAN_POINT('',(9.55,8.58016154937481,-1.16953769318572E-15));
#226=CARTESIAN_POINT('Origin',(-8.6,12.7,0.));
#227=CARTESIAN_POINT('',(-8.6,12.7,0.));
#228=CARTESIAN_POINT('',(8.6,12.7,-1.05319624726672E-15));
#229=CARTESIAN_POINT('Origin',(0.,12.7,0.));
#230=CARTESIAN_POINT('Origin',(0.,12.7,0.));
#231=CARTESIAN_POINT('Origin',(0.,1.25,0.));
#232=CARTESIAN_POINT('',(8.6,0.,-1.05319624726672E-15));
#233=CARTESIAN_POINT('',(8.6,1.25,-1.05319624726672E-15));
#234=CARTESIAN_POINT('',(-8.6,0.,0.));
#235=CARTESIAN_POINT('Origin',(0.,0.,0.));
#236=CARTESIAN_POINT('Origin',(0.,0.,0.));
#237=CARTESIAN_POINT('Origin',(-15.,0.,0.));
#238=UNCERTAINTY_MEASURE_WITH_UNIT(LENGTH_MEASURE(0.01),#242,
'DISTANCE_ACCURACY_VALUE',
'Maximum model space distance between geometric entities at asserted c
onnectivities');
#239=UNCERTAINTY_MEASURE_WITH_UNIT(LENGTH_MEASURE(0.01),#242,
'DISTANCE_ACCURACY_VALUE',
'Maximum model space distance between geometric entities at asserted c
onnectivities');
#240=(
GEOMETRIC_REPRESENTATION_CONTEXT(3)
GLOBAL_UNCERTAINTY_ASSIGNED_CONTEXT((#238))
GLOBAL_UNIT_ASSIGNED_CONTEXT((#242,#245,#244))
REPRESENTATION_CONTEXT('','3D')
);
#241=(
GEOMETRIC_REPRESENTATION_CONTEXT(3)
GLOBAL_UNCERTAINTY_ASSIGNED_CONTEXT((#239))
GLOBAL_UNIT_ASSIGNED_CONTEXT((#242,#245,#244))
REPRESENTATION_CONTEXT('','3D')
);
#242=(
LENGTH_UNIT()
NAMED_UNIT(*)
SI_UNIT(.MILLI.,.METRE.)
);
#243=(
LENGTH_UNIT()
NAMED_UNIT(*)
SI_UNIT(.CENTI.,.METRE.)
);
#244=(
NAMED_UNIT(*)
SI_UNIT($,.STERADIAN.)
SOLID_ANGLE_UNIT()
);
#245=(
NAMED_UNIT(*)
PLANE_ANGLE_UNIT()
SI_UNIT($,.RADIAN.)
);
#246=SHAPE_DEFINITION_REPRESENTATION(#247,#248);
#247=PRODUCT_DEFINITION_SHAPE('',$,#250);
#248=SHAPE_REPRESENTATION('',(#142),#240);
#249=PRODUCT_DEFINITION_CONTEXT('part definition',#254,'design');
#250=PRODUCT_DEFINITION('FL-SHN16KF-19','FL-SHN16KF-19',#251,#249);
#251=PRODUCT_DEFINITION_FORMATION('',$,#256);
#252=PRODUCT_RELATED_PRODUCT_CATEGORY('FL-SHN16KF-19','FL-SHN16KF-19',(#256));
#253=APPLICATION_PROTOCOL_DEFINITION('international standard',
'automotive_design',2009,#254);
#254=APPLICATION_CONTEXT(
'Core Data for Automotive Mechanical Design Process');
#255=PRODUCT_CONTEXT('part definition',#254,'mechanical');
#256=PRODUCT('FL-SHN16KF-19','FL-SHN16KF-19',$,(#255));
#257=PRESENTATION_STYLE_ASSIGNMENT((#258));
#258=SURFACE_STYLE_USAGE(.BOTH.,#259);
#259=SURFACE_SIDE_STYLE('',(#260));
#260=SURFACE_STYLE_FILL_AREA(#261);
#261=FILL_AREA_STYLE('',(#262));
#262=FILL_AREA_STYLE_COLOUR('',#263);
#263=COLOUR_RGB('',0.745098039215686,0.737254901960784,0.729411764705882);
ENDSEC;
END-ISO-10303-21;
