ISO-10303-21;
HEADER;
/* Generated by software containing ST-Developer
 * from STEP Tools, Inc. (www.steptools.com) 
 */

FILE_DESCRIPTION(
/* description */ (''),
/* implementation_level */ '2;1');

FILE_NAME(
/* name */ 
'G:\\FLANGES & FITTINGS\\Half Nipples\\Step files\\FL-LHN50KF-57.stp',
/* time_stamp */ '2018-07-24T16:17:53+01:00',
/* author */ ('paul'),
/* organization */ (''),
/* preprocessor_version */ 'ST-DEVELOPER v17',
/* originating_system */ 'Autodesk Inventor 2019',
/* authorisation */ '');

FILE_SCHEMA (('AUTOMOTIVE_DESIGN { 1 0 10303 214 3 1 1 }'));
ENDSEC;

DATA;
#10=MECHANICAL_DESIGN_GEOMETRIC_PRESENTATION_REPRESENTATION('',(#13),#271);
#11=SHAPE_REPRESENTATION_RELATIONSHIP('SRR','None',#278,#12);
#12=ADVANCED_BREP_SHAPE_REPRESENTATION('',(#14),#270);
#13=STYLED_ITEM('',(#287),#14);
#14=MANIFOLD_SOLID_BREP('Solid1',#139);
#15=CYLINDRICAL_SURFACE('',#167,28.5);
#16=CYLINDRICAL_SURFACE('',#173,26.5);
#17=CYLINDRICAL_SURFACE('',#179,37.5);
#18=FACE_BOUND('',#33,.T.);
#19=FACE_BOUND('',#36,.T.);
#20=FACE_BOUND('',#39,.T.);
#21=PLANE('',#164);
#22=PLANE('',#170);
#23=PLANE('',#176);
#24=FACE_OUTER_BOUND('',#31,.T.);
#25=FACE_OUTER_BOUND('',#32,.T.);
#26=FACE_OUTER_BOUND('',#34,.T.);
#27=FACE_OUTER_BOUND('',#35,.T.);
#28=FACE_OUTER_BOUND('',#37,.T.);
#29=FACE_OUTER_BOUND('',#38,.T.);
#30=FACE_OUTER_BOUND('',#40,.T.);
#31=EDGE_LOOP('',(#95,#96,#97,#98,#99,#100));
#32=EDGE_LOOP('',(#101,#102));
#33=EDGE_LOOP('',(#103,#104));
#34=EDGE_LOOP('',(#105,#106,#107,#108,#109,#110));
#35=EDGE_LOOP('',(#111,#112));
#36=EDGE_LOOP('',(#113,#114));
#37=EDGE_LOOP('',(#115,#116,#117,#118,#119,#120));
#38=EDGE_LOOP('',(#121,#122));
#39=EDGE_LOOP('',(#123,#124));
#40=EDGE_LOOP('',(#125,#126,#127,#128,#129,#130));
#41=LINE('',#235,#45);
#42=LINE('',#249,#46);
#43=LINE('',#257,#47);
#44=LINE('',#267,#48);
#45=VECTOR('',#188,33.7679491924311);
#46=VECTOR('',#205,28.5);
#47=VECTOR('',#214,26.5);
#48=VECTOR('',#227,37.5);
#49=CIRCLE('',#160,30.0358983848622);
#50=CIRCLE('',#161,30.0358983848622);
#51=CIRCLE('',#162,37.5);
#52=CIRCLE('',#163,37.5);
#53=CIRCLE('',#165,28.5);
#54=CIRCLE('',#166,28.5);
#55=CIRCLE('',#168,28.5);
#56=CIRCLE('',#169,28.5);
#57=CIRCLE('',#171,26.5);
#58=CIRCLE('',#172,26.5);
#59=CIRCLE('',#174,26.5);
#60=CIRCLE('',#175,26.5);
#61=CIRCLE('',#177,37.5);
#62=CIRCLE('',#178,37.5);
#63=VERTEX_POINT('',#230);
#64=VERTEX_POINT('',#231);
#65=VERTEX_POINT('',#234);
#66=VERTEX_POINT('',#236);
#67=VERTEX_POINT('',#240);
#68=VERTEX_POINT('',#241);
#69=VERTEX_POINT('',#245);
#70=VERTEX_POINT('',#246);
#71=VERTEX_POINT('',#251);
#72=VERTEX_POINT('',#252);
#73=VERTEX_POINT('',#256);
#74=VERTEX_POINT('',#258);
#75=VERTEX_POINT('',#262);
#76=VERTEX_POINT('',#263);
#77=EDGE_CURVE('',#63,#64,#49,.T.);
#78=EDGE_CURVE('',#64,#63,#50,.T.);
#79=EDGE_CURVE('',#64,#65,#41,.T.);
#80=EDGE_CURVE('',#65,#66,#51,.T.);
#81=EDGE_CURVE('',#66,#65,#52,.T.);
#82=EDGE_CURVE('',#67,#68,#53,.T.);
#83=EDGE_CURVE('',#68,#67,#54,.T.);
#84=EDGE_CURVE('',#69,#70,#55,.T.);
#85=EDGE_CURVE('',#70,#69,#56,.T.);
#86=EDGE_CURVE('',#70,#68,#42,.T.);
#87=EDGE_CURVE('',#71,#72,#57,.T.);
#88=EDGE_CURVE('',#72,#71,#58,.T.);
#89=EDGE_CURVE('',#72,#73,#43,.T.);
#90=EDGE_CURVE('',#74,#73,#59,.T.);
#91=EDGE_CURVE('',#73,#74,#60,.T.);
#92=EDGE_CURVE('',#75,#76,#61,.T.);
#93=EDGE_CURVE('',#76,#75,#62,.T.);
#94=EDGE_CURVE('',#65,#76,#44,.T.);
#95=ORIENTED_EDGE('',*,*,#77,.F.);
#96=ORIENTED_EDGE('',*,*,#78,.F.);
#97=ORIENTED_EDGE('',*,*,#79,.T.);
#98=ORIENTED_EDGE('',*,*,#80,.T.);
#99=ORIENTED_EDGE('',*,*,#81,.T.);
#100=ORIENTED_EDGE('',*,*,#79,.F.);
#101=ORIENTED_EDGE('',*,*,#77,.T.);
#102=ORIENTED_EDGE('',*,*,#78,.T.);
#103=ORIENTED_EDGE('',*,*,#82,.F.);
#104=ORIENTED_EDGE('',*,*,#83,.F.);
#105=ORIENTED_EDGE('',*,*,#84,.F.);
#106=ORIENTED_EDGE('',*,*,#85,.F.);
#107=ORIENTED_EDGE('',*,*,#86,.T.);
#108=ORIENTED_EDGE('',*,*,#83,.T.);
#109=ORIENTED_EDGE('',*,*,#82,.T.);
#110=ORIENTED_EDGE('',*,*,#86,.F.);
#111=ORIENTED_EDGE('',*,*,#84,.T.);
#112=ORIENTED_EDGE('',*,*,#85,.T.);
#113=ORIENTED_EDGE('',*,*,#87,.F.);
#114=ORIENTED_EDGE('',*,*,#88,.F.);
#115=ORIENTED_EDGE('',*,*,#87,.T.);
#116=ORIENTED_EDGE('',*,*,#89,.T.);
#117=ORIENTED_EDGE('',*,*,#90,.F.);
#118=ORIENTED_EDGE('',*,*,#91,.F.);
#119=ORIENTED_EDGE('',*,*,#89,.F.);
#120=ORIENTED_EDGE('',*,*,#88,.T.);
#121=ORIENTED_EDGE('',*,*,#92,.F.);
#122=ORIENTED_EDGE('',*,*,#93,.F.);
#123=ORIENTED_EDGE('',*,*,#90,.T.);
#124=ORIENTED_EDGE('',*,*,#91,.T.);
#125=ORIENTED_EDGE('',*,*,#81,.F.);
#126=ORIENTED_EDGE('',*,*,#80,.F.);
#127=ORIENTED_EDGE('',*,*,#94,.T.);
#128=ORIENTED_EDGE('',*,*,#93,.T.);
#129=ORIENTED_EDGE('',*,*,#92,.T.);
#130=ORIENTED_EDGE('',*,*,#94,.F.);
#131=CONICAL_SURFACE('',#159,33.7679491924311,1.30899693899575);
#132=ADVANCED_FACE('',(#24),#131,.T.);
#133=ADVANCED_FACE('',(#25,#18),#21,.T.);
#134=ADVANCED_FACE('',(#26),#15,.T.);
#135=ADVANCED_FACE('',(#27,#19),#22,.T.);
#136=ADVANCED_FACE('',(#28),#16,.F.);
#137=ADVANCED_FACE('',(#29,#20),#23,.T.);
#138=ADVANCED_FACE('',(#30),#17,.T.);
#139=CLOSED_SHELL('',(#132,#133,#134,#135,#136,#137,#138));
#140=DERIVED_UNIT_ELEMENT(#142,1.);
#141=DERIVED_UNIT_ELEMENT(#273,3.);
#142=(
MASS_UNIT()
NAMED_UNIT(*)
SI_UNIT($,.GRAM.)
);
#143=DERIVED_UNIT((#140,#141));
#144=MEASURE_REPRESENTATION_ITEM('density measure',
POSITIVE_RATIO_MEASURE(8.),#143);
#145=PROPERTY_DEFINITION_REPRESENTATION(#150,#147);
#146=PROPERTY_DEFINITION_REPRESENTATION(#151,#148);
#147=REPRESENTATION('material name',(#149),#270);
#148=REPRESENTATION('density',(#144),#270);
#149=DESCRIPTIVE_REPRESENTATION_ITEM('Stainless Steel AISI 304',
'Stainless Steel AISI 304');
#150=PROPERTY_DEFINITION('material property','material name',#280);
#151=PROPERTY_DEFINITION('material property','density of part',#280);
#152=DATE_TIME_ROLE('creation_date');
#153=APPLIED_DATE_AND_TIME_ASSIGNMENT(#154,#152,(#280));
#154=DATE_AND_TIME(#155,#156);
#155=CALENDAR_DATE(2017,7,2);
#156=LOCAL_TIME(12,49,47.,#157);
#157=COORDINATED_UNIVERSAL_TIME_OFFSET(0,0,.BEHIND.);
#158=AXIS2_PLACEMENT_3D('placement',#228,#180,#181);
#159=AXIS2_PLACEMENT_3D('',#229,#182,#183);
#160=AXIS2_PLACEMENT_3D('',#232,#184,#185);
#161=AXIS2_PLACEMENT_3D('',#233,#186,#187);
#162=AXIS2_PLACEMENT_3D('',#237,#189,#190);
#163=AXIS2_PLACEMENT_3D('',#238,#191,#192);
#164=AXIS2_PLACEMENT_3D('',#239,#193,#194);
#165=AXIS2_PLACEMENT_3D('',#242,#195,#196);
#166=AXIS2_PLACEMENT_3D('',#243,#197,#198);
#167=AXIS2_PLACEMENT_3D('',#244,#199,#200);
#168=AXIS2_PLACEMENT_3D('',#247,#201,#202);
#169=AXIS2_PLACEMENT_3D('',#248,#203,#204);
#170=AXIS2_PLACEMENT_3D('',#250,#206,#207);
#171=AXIS2_PLACEMENT_3D('',#253,#208,#209);
#172=AXIS2_PLACEMENT_3D('',#254,#210,#211);
#173=AXIS2_PLACEMENT_3D('',#255,#212,#213);
#174=AXIS2_PLACEMENT_3D('',#259,#215,#216);
#175=AXIS2_PLACEMENT_3D('',#260,#217,#218);
#176=AXIS2_PLACEMENT_3D('',#261,#219,#220);
#177=AXIS2_PLACEMENT_3D('',#264,#221,#222);
#178=AXIS2_PLACEMENT_3D('',#265,#223,#224);
#179=AXIS2_PLACEMENT_3D('',#266,#225,#226);
#180=DIRECTION('axis',(0.,0.,1.));
#181=DIRECTION('refdir',(1.,0.,0.));
#182=DIRECTION('center_axis',(0.,-1.,0.));
#183=DIRECTION('ref_axis',(-1.,0.,0.));
#184=DIRECTION('center_axis',(0.,1.,0.));
#185=DIRECTION('ref_axis',(1.,0.,0.));
#186=DIRECTION('center_axis',(0.,1.,0.));
#187=DIRECTION('ref_axis',(1.,0.,0.));
#188=DIRECTION('',(0.965925826289069,-0.258819045102519,-1.18291797137867E-16));
#189=DIRECTION('center_axis',(0.,1.,0.));
#190=DIRECTION('ref_axis',(1.,0.,0.));
#191=DIRECTION('center_axis',(0.,1.,0.));
#192=DIRECTION('ref_axis',(1.,0.,0.));
#193=DIRECTION('center_axis',(0.,1.,0.));
#194=DIRECTION('ref_axis',(0.,0.,1.));
#195=DIRECTION('center_axis',(0.,1.,0.));
#196=DIRECTION('ref_axis',(1.,0.,0.));
#197=DIRECTION('center_axis',(0.,1.,0.));
#198=DIRECTION('ref_axis',(1.,0.,0.));
#199=DIRECTION('center_axis',(0.,1.,0.));
#200=DIRECTION('ref_axis',(-1.,0.,0.));
#201=DIRECTION('center_axis',(0.,1.,0.));
#202=DIRECTION('ref_axis',(1.,0.,0.));
#203=DIRECTION('center_axis',(0.,1.,0.));
#204=DIRECTION('ref_axis',(1.,0.,0.));
#205=DIRECTION('',(0.,-1.,0.));
#206=DIRECTION('center_axis',(0.,1.,0.));
#207=DIRECTION('ref_axis',(0.,0.,1.));
#208=DIRECTION('center_axis',(0.,1.,0.));
#209=DIRECTION('ref_axis',(1.,0.,0.));
#210=DIRECTION('center_axis',(0.,1.,0.));
#211=DIRECTION('ref_axis',(1.,0.,0.));
#212=DIRECTION('center_axis',(0.,1.,0.));
#213=DIRECTION('ref_axis',(-1.,0.,0.));
#214=DIRECTION('',(0.,-1.,0.));
#215=DIRECTION('center_axis',(0.,1.,0.));
#216=DIRECTION('ref_axis',(1.,0.,0.));
#217=DIRECTION('center_axis',(0.,1.,0.));
#218=DIRECTION('ref_axis',(1.,0.,0.));
#219=DIRECTION('center_axis',(0.,-1.,0.));
#220=DIRECTION('ref_axis',(0.,0.,-1.));
#221=DIRECTION('center_axis',(0.,1.,0.));
#222=DIRECTION('ref_axis',(1.,0.,0.));
#223=DIRECTION('center_axis',(0.,1.,0.));
#224=DIRECTION('ref_axis',(1.,0.,0.));
#225=DIRECTION('center_axis',(0.,1.,0.));
#226=DIRECTION('ref_axis',(-1.,0.,0.));
#227=DIRECTION('',(0.,-1.,0.));
#228=CARTESIAN_POINT('',(0.,0.,0.));
#229=CARTESIAN_POINT('Origin',(0.,4.,0.));
#230=CARTESIAN_POINT('',(-30.0358983848622,5.,0.));
#231=CARTESIAN_POINT('',(30.0358983848622,5.,-3.67833668165366E-15));
#232=CARTESIAN_POINT('Origin',(0.,5.,0.));
#233=CARTESIAN_POINT('Origin',(0.,5.,0.));
#234=CARTESIAN_POINT('',(37.5,3.,-4.59242549680258E-15));
#235=CARTESIAN_POINT('',(33.7679491924311,4.,-4.13538108922812E-15));
#236=CARTESIAN_POINT('',(-37.5,3.,0.));
#237=CARTESIAN_POINT('Origin',(0.,3.,0.));
#238=CARTESIAN_POINT('Origin',(0.,3.,0.));
#239=CARTESIAN_POINT('Origin',(-28.5,5.,0.));
#240=CARTESIAN_POINT('',(-28.5,5.,0.));
#241=CARTESIAN_POINT('',(28.5,5.,-3.49024337756996E-15));
#242=CARTESIAN_POINT('Origin',(0.,5.,0.));
#243=CARTESIAN_POINT('Origin',(0.,5.,0.));
#244=CARTESIAN_POINT('Origin',(0.,37.5,0.));
#245=CARTESIAN_POINT('',(-28.5,70.,0.));
#246=CARTESIAN_POINT('',(28.5,70.,-3.49024337756996E-15));
#247=CARTESIAN_POINT('Origin',(0.,70.,0.));
#248=CARTESIAN_POINT('Origin',(0.,70.,0.));
#249=CARTESIAN_POINT('',(28.5,37.5,-3.49024337756996E-15));
#250=CARTESIAN_POINT('Origin',(-26.5,70.,0.));
#251=CARTESIAN_POINT('',(-26.5,70.,0.));
#252=CARTESIAN_POINT('',(26.5,70.,-3.24531401774049E-15));
#253=CARTESIAN_POINT('Origin',(0.,70.,0.));
#254=CARTESIAN_POINT('Origin',(0.,70.,0.));
#255=CARTESIAN_POINT('Origin',(0.,35.,0.));
#256=CARTESIAN_POINT('',(26.5,-4.44089209850063E-15,-3.24531401774049E-15));
#257=CARTESIAN_POINT('',(26.5,35.,-3.24531401774049E-15));
#258=CARTESIAN_POINT('',(-26.5,0.,0.));
#259=CARTESIAN_POINT('Origin',(0.,0.,0.));
#260=CARTESIAN_POINT('Origin',(0.,0.,0.));
#261=CARTESIAN_POINT('Origin',(-37.5,0.,0.));
#262=CARTESIAN_POINT('',(-37.5,0.,0.));
#263=CARTESIAN_POINT('',(37.5,0.,-4.59242549680258E-15));
#264=CARTESIAN_POINT('Origin',(0.,0.,0.));
#265=CARTESIAN_POINT('Origin',(0.,0.,0.));
#266=CARTESIAN_POINT('Origin',(0.,1.5,0.));
#267=CARTESIAN_POINT('',(37.5,1.5,-4.59242549680258E-15));
#268=UNCERTAINTY_MEASURE_WITH_UNIT(LENGTH_MEASURE(0.01),#272,
'DISTANCE_ACCURACY_VALUE',
'Maximum model space distance between geometric entities at asserted c
onnectivities');
#269=UNCERTAINTY_MEASURE_WITH_UNIT(LENGTH_MEASURE(0.01),#272,
'DISTANCE_ACCURACY_VALUE',
'Maximum model space distance between geometric entities at asserted c
onnectivities');
#270=(
GEOMETRIC_REPRESENTATION_CONTEXT(3)
GLOBAL_UNCERTAINTY_ASSIGNED_CONTEXT((#268))
GLOBAL_UNIT_ASSIGNED_CONTEXT((#272,#275,#274))
REPRESENTATION_CONTEXT('','3D')
);
#271=(
GEOMETRIC_REPRESENTATION_CONTEXT(3)
GLOBAL_UNCERTAINTY_ASSIGNED_CONTEXT((#269))
GLOBAL_UNIT_ASSIGNED_CONTEXT((#272,#275,#274))
REPRESENTATION_CONTEXT('','3D')
);
#272=(
LENGTH_UNIT()
NAMED_UNIT(*)
SI_UNIT(.MILLI.,.METRE.)
);
#273=(
LENGTH_UNIT()
NAMED_UNIT(*)
SI_UNIT(.CENTI.,.METRE.)
);
#274=(
NAMED_UNIT(*)
SI_UNIT($,.STERADIAN.)
SOLID_ANGLE_UNIT()
);
#275=(
NAMED_UNIT(*)
PLANE_ANGLE_UNIT()
SI_UNIT($,.RADIAN.)
);
#276=SHAPE_DEFINITION_REPRESENTATION(#277,#278);
#277=PRODUCT_DEFINITION_SHAPE('',$,#280);
#278=SHAPE_REPRESENTATION('',(#158),#270);
#279=PRODUCT_DEFINITION_CONTEXT('part definition',#284,'design');
#280=PRODUCT_DEFINITION('FL-LHN50KF-57','FL-LHN50KF-57',#281,#279);
#281=PRODUCT_DEFINITION_FORMATION('',$,#286);
#282=PRODUCT_RELATED_PRODUCT_CATEGORY('FL-LHN50KF-57','FL-LHN50KF-57',(#286));
#283=APPLICATION_PROTOCOL_DEFINITION('international standard',
'automotive_design',2009,#284);
#284=APPLICATION_CONTEXT(
'Core Data for Automotive Mechanical Design Process');
#285=PRODUCT_CONTEXT('part definition',#284,'mechanical');
#286=PRODUCT('FL-LHN50KF-57','FL-LHN50KF-57',$,(#285));
#287=PRESENTATION_STYLE_ASSIGNMENT((#288));
#288=SURFACE_STYLE_USAGE(.BOTH.,#289);
#289=SURFACE_SIDE_STYLE('',(#290));
#290=SURFACE_STYLE_FILL_AREA(#291);
#291=FILL_AREA_STYLE('',(#292));
#292=FILL_AREA_STYLE_COLOUR('',#293);
#293=COLOUR_RGB('',0.745098039215686,0.737254901960784,0.729411764705882);
ENDSEC;
END-ISO-10303-21;
