ISO-10303-21;
HEADER;
/* Generated by software containing ST-Developer
 * from STEP Tools, Inc. (www.steptools.com) 
 */

FILE_DESCRIPTION(
/* description */ (''),
/* implementation_level */ '2;1');

FILE_NAME(
/* name */ 
'G:\\FLANGES & FITTINGS\\Half Nipples\\Step files\\FL-HN80LF.stp',
/* time_stamp */ '2018-07-25T14:50:10+01:00',
/* author */ ('paul'),
/* organization */ (''),
/* preprocessor_version */ 'ST-DEVELOPER v17',
/* originating_system */ 'Autodesk Inventor 2019',
/* authorisation */ '');

FILE_SCHEMA (('AUTOMOTIVE_DESIGN { 1 0 10303 214 3 1 1 }'));
ENDSEC;

DATA;
#10=MECHANICAL_DESIGN_GEOMETRIC_PRESENTATION_REPRESENTATION('',(#13),#597);
#11=SHAPE_REPRESENTATION_RELATIONSHIP('SRR','None',#604,#12);
#12=ADVANCED_BREP_SHAPE_REPRESENTATION('',(#14),#596);
#13=STYLED_ITEM('',(#613),#14);
#14=MANIFOLD_SOLID_BREP('Solid1',#314);
#15=TOROIDAL_SURFACE('',#361,54.9196091714773,1.5);
#16=CYLINDRICAL_SURFACE('',#341,55.);
#17=CYLINDRICAL_SURFACE('',#351,55.);
#18=CYLINDRICAL_SURFACE('',#358,52.5);
#19=CYLINDRICAL_SURFACE('',#366,46.5);
#20=CYLINDRICAL_SURFACE('',#372,38.1);
#21=CYLINDRICAL_SURFACE('',#378,35.);
#22=CYLINDRICAL_SURFACE('',#384,41.5);
#23=FACE_BOUND('',#54,.T.);
#24=FACE_BOUND('',#58,.T.);
#25=FACE_BOUND('',#64,.T.);
#26=FACE_BOUND('',#67,.T.);
#27=FACE_BOUND('',#70,.T.);
#28=FACE_BOUND('',#73,.T.);
#29=PLANE('',#338);
#30=PLANE('',#349);
#31=PLANE('',#363);
#32=PLANE('',#369);
#33=PLANE('',#375);
#34=PLANE('',#381);
#35=FACE_OUTER_BOUND('',#52,.T.);
#36=FACE_OUTER_BOUND('',#53,.T.);
#37=FACE_OUTER_BOUND('',#55,.T.);
#38=FACE_OUTER_BOUND('',#56,.T.);
#39=FACE_OUTER_BOUND('',#57,.T.);
#40=FACE_OUTER_BOUND('',#59,.T.);
#41=FACE_OUTER_BOUND('',#60,.T.);
#42=FACE_OUTER_BOUND('',#61,.T.);
#43=FACE_OUTER_BOUND('',#62,.T.);
#44=FACE_OUTER_BOUND('',#63,.T.);
#45=FACE_OUTER_BOUND('',#65,.T.);
#46=FACE_OUTER_BOUND('',#66,.T.);
#47=FACE_OUTER_BOUND('',#68,.T.);
#48=FACE_OUTER_BOUND('',#69,.T.);
#49=FACE_OUTER_BOUND('',#71,.T.);
#50=FACE_OUTER_BOUND('',#72,.T.);
#51=FACE_OUTER_BOUND('',#74,.T.);
#52=EDGE_LOOP('',(#206,#207,#208,#209,#210));
#53=EDGE_LOOP('',(#211));
#54=EDGE_LOOP('',(#212,#213));
#55=EDGE_LOOP('',(#214,#215,#216,#217,#218,#219,#220));
#56=EDGE_LOOP('',(#221,#222,#223,#224,#225));
#57=EDGE_LOOP('',(#226));
#58=EDGE_LOOP('',(#227));
#59=EDGE_LOOP('',(#228,#229,#230,#231,#232,#233,#234));
#60=EDGE_LOOP('',(#235,#236,#237,#238,#239));
#61=EDGE_LOOP('',(#240,#241,#242,#243,#244,#245));
#62=EDGE_LOOP('',(#246,#247,#248,#249,#250,#251,#252,#253));
#63=EDGE_LOOP('',(#254,#255));
#64=EDGE_LOOP('',(#256,#257));
#65=EDGE_LOOP('',(#258,#259,#260,#261,#262,#263));
#66=EDGE_LOOP('',(#264,#265));
#67=EDGE_LOOP('',(#266,#267));
#68=EDGE_LOOP('',(#268,#269,#270,#271,#272,#273));
#69=EDGE_LOOP('',(#274,#275));
#70=EDGE_LOOP('',(#276,#277));
#71=EDGE_LOOP('',(#278,#279,#280,#281,#282,#283));
#72=EDGE_LOOP('',(#284,#285));
#73=EDGE_LOOP('',(#286,#287));
#74=EDGE_LOOP('',(#288,#289,#290,#291,#292,#293));
#75=LINE('',#506,#85);
#76=LINE('',#520,#86);
#77=LINE('',#525,#87);
#78=LINE('',#534,#88);
#79=LINE('',#545,#89);
#80=LINE('',#548,#90);
#81=LINE('',#564,#91);
#82=LINE('',#575,#92);
#83=LINE('',#583,#93);
#84=LINE('',#593,#94);
#85=VECTOR('',#393,54.75);
#86=VECTOR('',#410,55.);
#87=VECTOR('',#415,54.75);
#88=VECTOR('',#426,55.);
#89=VECTOR('',#439,52.75);
#90=VECTOR('',#442,52.5);
#91=VECTOR('',#463,46.5);
#92=VECTOR('',#476,38.1);
#93=VECTOR('',#485,35.);
#94=VECTOR('',#498,41.5);
#95=CIRCLE('',#335,55.);
#96=CIRCLE('',#336,55.);
#97=CIRCLE('',#337,54.5);
#98=CIRCLE('',#339,41.5);
#99=CIRCLE('',#340,41.5);
#100=CIRCLE('',#342,55.);
#101=CIRCLE('',#343,55.);
#102=CIRCLE('',#344,55.);
#103=CIRCLE('',#346,54.5);
#104=CIRCLE('',#347,55.);
#105=CIRCLE('',#348,55.);
#106=CIRCLE('',#350,53.);
#107=CIRCLE('',#352,55.);
#108=CIRCLE('',#353,55.);
#109=CIRCLE('',#354,55.);
#110=CIRCLE('',#356,52.5);
#111=CIRCLE('',#357,52.5);
#112=CIRCLE('',#359,52.5);
#113=CIRCLE('',#360,52.5);
#114=CIRCLE('',#362,1.5);
#115=CIRCLE('',#364,46.5);
#116=CIRCLE('',#365,46.5);
#117=CIRCLE('',#367,46.5);
#118=CIRCLE('',#368,46.5);
#119=CIRCLE('',#370,38.1);
#120=CIRCLE('',#371,38.1);
#121=CIRCLE('',#373,38.1);
#122=CIRCLE('',#374,38.1);
#123=CIRCLE('',#376,35.);
#124=CIRCLE('',#377,35.);
#125=CIRCLE('',#379,35.);
#126=CIRCLE('',#380,35.);
#127=CIRCLE('',#382,41.5);
#128=CIRCLE('',#383,41.5);
#129=VERTEX_POINT('',#501);
#130=VERTEX_POINT('',#502);
#131=VERTEX_POINT('',#505);
#132=VERTEX_POINT('',#509);
#133=VERTEX_POINT('',#510);
#134=VERTEX_POINT('',#514);
#135=VERTEX_POINT('',#515);
#136=VERTEX_POINT('',#517);
#137=VERTEX_POINT('',#522);
#138=VERTEX_POINT('',#524);
#139=VERTEX_POINT('',#526);
#140=VERTEX_POINT('',#530);
#141=VERTEX_POINT('',#533);
#142=VERTEX_POINT('',#535);
#143=VERTEX_POINT('',#537);
#144=VERTEX_POINT('',#541);
#145=VERTEX_POINT('',#542);
#146=VERTEX_POINT('',#547);
#147=VERTEX_POINT('',#549);
#148=VERTEX_POINT('',#555);
#149=VERTEX_POINT('',#556);
#150=VERTEX_POINT('',#560);
#151=VERTEX_POINT('',#561);
#152=VERTEX_POINT('',#566);
#153=VERTEX_POINT('',#567);
#154=VERTEX_POINT('',#571);
#155=VERTEX_POINT('',#572);
#156=VERTEX_POINT('',#577);
#157=VERTEX_POINT('',#578);
#158=VERTEX_POINT('',#582);
#159=VERTEX_POINT('',#584);
#160=VERTEX_POINT('',#588);
#161=VERTEX_POINT('',#589);
#162=EDGE_CURVE('',#129,#130,#95,.T.);
#163=EDGE_CURVE('',#130,#129,#96,.T.);
#164=EDGE_CURVE('',#129,#131,#75,.T.);
#165=EDGE_CURVE('',#131,#131,#97,.T.);
#166=EDGE_CURVE('',#132,#133,#98,.T.);
#167=EDGE_CURVE('',#133,#132,#99,.T.);
#168=EDGE_CURVE('',#134,#135,#100,.T.);
#169=EDGE_CURVE('',#136,#134,#101,.T.);
#170=EDGE_CURVE('',#135,#136,#102,.T.);
#171=EDGE_CURVE('',#135,#130,#76,.T.);
#172=EDGE_CURVE('',#137,#137,#103,.T.);
#173=EDGE_CURVE('',#137,#138,#77,.T.);
#174=EDGE_CURVE('',#138,#139,#104,.T.);
#175=EDGE_CURVE('',#139,#138,#105,.T.);
#176=EDGE_CURVE('',#140,#140,#106,.T.);
#177=EDGE_CURVE('',#139,#141,#78,.T.);
#178=EDGE_CURVE('',#141,#142,#107,.T.);
#179=EDGE_CURVE('',#142,#143,#108,.T.);
#180=EDGE_CURVE('',#143,#141,#109,.T.);
#181=EDGE_CURVE('',#144,#145,#110,.T.);
#182=EDGE_CURVE('',#145,#144,#111,.T.);
#183=EDGE_CURVE('',#144,#140,#79,.T.);
#184=EDGE_CURVE('',#145,#146,#80,.T.);
#185=EDGE_CURVE('',#147,#146,#112,.T.);
#186=EDGE_CURVE('',#146,#147,#113,.T.);
#187=EDGE_CURVE('',#136,#142,#114,.T.);
#188=EDGE_CURVE('',#148,#149,#115,.T.);
#189=EDGE_CURVE('',#149,#148,#116,.T.);
#190=EDGE_CURVE('',#150,#151,#117,.T.);
#191=EDGE_CURVE('',#151,#150,#118,.T.);
#192=EDGE_CURVE('',#151,#149,#81,.T.);
#193=EDGE_CURVE('',#152,#153,#119,.T.);
#194=EDGE_CURVE('',#153,#152,#120,.T.);
#195=EDGE_CURVE('',#154,#155,#121,.T.);
#196=EDGE_CURVE('',#155,#154,#122,.T.);
#197=EDGE_CURVE('',#155,#153,#82,.T.);
#198=EDGE_CURVE('',#156,#157,#123,.T.);
#199=EDGE_CURVE('',#157,#156,#124,.T.);
#200=EDGE_CURVE('',#157,#158,#83,.T.);
#201=EDGE_CURVE('',#159,#158,#125,.T.);
#202=EDGE_CURVE('',#158,#159,#126,.T.);
#203=EDGE_CURVE('',#160,#161,#127,.T.);
#204=EDGE_CURVE('',#161,#160,#128,.T.);
#205=EDGE_CURVE('',#161,#133,#84,.T.);
#206=ORIENTED_EDGE('',*,*,#162,.T.);
#207=ORIENTED_EDGE('',*,*,#163,.T.);
#208=ORIENTED_EDGE('',*,*,#164,.T.);
#209=ORIENTED_EDGE('',*,*,#165,.T.);
#210=ORIENTED_EDGE('',*,*,#164,.F.);
#211=ORIENTED_EDGE('',*,*,#165,.F.);
#212=ORIENTED_EDGE('',*,*,#166,.T.);
#213=ORIENTED_EDGE('',*,*,#167,.T.);
#214=ORIENTED_EDGE('',*,*,#168,.F.);
#215=ORIENTED_EDGE('',*,*,#169,.F.);
#216=ORIENTED_EDGE('',*,*,#170,.F.);
#217=ORIENTED_EDGE('',*,*,#171,.T.);
#218=ORIENTED_EDGE('',*,*,#162,.F.);
#219=ORIENTED_EDGE('',*,*,#163,.F.);
#220=ORIENTED_EDGE('',*,*,#171,.F.);
#221=ORIENTED_EDGE('',*,*,#172,.T.);
#222=ORIENTED_EDGE('',*,*,#173,.T.);
#223=ORIENTED_EDGE('',*,*,#174,.T.);
#224=ORIENTED_EDGE('',*,*,#175,.T.);
#225=ORIENTED_EDGE('',*,*,#173,.F.);
#226=ORIENTED_EDGE('',*,*,#172,.F.);
#227=ORIENTED_EDGE('',*,*,#176,.F.);
#228=ORIENTED_EDGE('',*,*,#174,.F.);
#229=ORIENTED_EDGE('',*,*,#175,.F.);
#230=ORIENTED_EDGE('',*,*,#177,.T.);
#231=ORIENTED_EDGE('',*,*,#178,.T.);
#232=ORIENTED_EDGE('',*,*,#179,.T.);
#233=ORIENTED_EDGE('',*,*,#180,.T.);
#234=ORIENTED_EDGE('',*,*,#177,.F.);
#235=ORIENTED_EDGE('',*,*,#181,.T.);
#236=ORIENTED_EDGE('',*,*,#182,.T.);
#237=ORIENTED_EDGE('',*,*,#183,.T.);
#238=ORIENTED_EDGE('',*,*,#176,.T.);
#239=ORIENTED_EDGE('',*,*,#183,.F.);
#240=ORIENTED_EDGE('',*,*,#181,.F.);
#241=ORIENTED_EDGE('',*,*,#182,.F.);
#242=ORIENTED_EDGE('',*,*,#184,.T.);
#243=ORIENTED_EDGE('',*,*,#185,.F.);
#244=ORIENTED_EDGE('',*,*,#186,.F.);
#245=ORIENTED_EDGE('',*,*,#184,.F.);
#246=ORIENTED_EDGE('',*,*,#168,.T.);
#247=ORIENTED_EDGE('',*,*,#170,.T.);
#248=ORIENTED_EDGE('',*,*,#187,.T.);
#249=ORIENTED_EDGE('',*,*,#178,.F.);
#250=ORIENTED_EDGE('',*,*,#180,.F.);
#251=ORIENTED_EDGE('',*,*,#179,.F.);
#252=ORIENTED_EDGE('',*,*,#187,.F.);
#253=ORIENTED_EDGE('',*,*,#169,.T.);
#254=ORIENTED_EDGE('',*,*,#185,.T.);
#255=ORIENTED_EDGE('',*,*,#186,.T.);
#256=ORIENTED_EDGE('',*,*,#188,.F.);
#257=ORIENTED_EDGE('',*,*,#189,.F.);
#258=ORIENTED_EDGE('',*,*,#190,.F.);
#259=ORIENTED_EDGE('',*,*,#191,.F.);
#260=ORIENTED_EDGE('',*,*,#192,.T.);
#261=ORIENTED_EDGE('',*,*,#189,.T.);
#262=ORIENTED_EDGE('',*,*,#188,.T.);
#263=ORIENTED_EDGE('',*,*,#192,.F.);
#264=ORIENTED_EDGE('',*,*,#190,.T.);
#265=ORIENTED_EDGE('',*,*,#191,.T.);
#266=ORIENTED_EDGE('',*,*,#193,.F.);
#267=ORIENTED_EDGE('',*,*,#194,.F.);
#268=ORIENTED_EDGE('',*,*,#195,.F.);
#269=ORIENTED_EDGE('',*,*,#196,.F.);
#270=ORIENTED_EDGE('',*,*,#197,.T.);
#271=ORIENTED_EDGE('',*,*,#194,.T.);
#272=ORIENTED_EDGE('',*,*,#193,.T.);
#273=ORIENTED_EDGE('',*,*,#197,.F.);
#274=ORIENTED_EDGE('',*,*,#195,.T.);
#275=ORIENTED_EDGE('',*,*,#196,.T.);
#276=ORIENTED_EDGE('',*,*,#198,.F.);
#277=ORIENTED_EDGE('',*,*,#199,.F.);
#278=ORIENTED_EDGE('',*,*,#198,.T.);
#279=ORIENTED_EDGE('',*,*,#200,.T.);
#280=ORIENTED_EDGE('',*,*,#201,.F.);
#281=ORIENTED_EDGE('',*,*,#202,.F.);
#282=ORIENTED_EDGE('',*,*,#200,.F.);
#283=ORIENTED_EDGE('',*,*,#199,.T.);
#284=ORIENTED_EDGE('',*,*,#203,.F.);
#285=ORIENTED_EDGE('',*,*,#204,.F.);
#286=ORIENTED_EDGE('',*,*,#201,.T.);
#287=ORIENTED_EDGE('',*,*,#202,.T.);
#288=ORIENTED_EDGE('',*,*,#203,.T.);
#289=ORIENTED_EDGE('',*,*,#205,.T.);
#290=ORIENTED_EDGE('',*,*,#166,.F.);
#291=ORIENTED_EDGE('',*,*,#167,.F.);
#292=ORIENTED_EDGE('',*,*,#205,.F.);
#293=ORIENTED_EDGE('',*,*,#204,.T.);
#294=CONICAL_SURFACE('',#334,54.75,0.785398163397447);
#295=CONICAL_SURFACE('',#345,54.75,0.785398163397457);
#296=CONICAL_SURFACE('',#355,52.75,0.785398163397446);
#297=ADVANCED_FACE('',(#35),#294,.T.);
#298=ADVANCED_FACE('',(#36,#23),#29,.T.);
#299=ADVANCED_FACE('',(#37),#16,.T.);
#300=ADVANCED_FACE('',(#38),#295,.T.);
#301=ADVANCED_FACE('',(#39,#24),#30,.T.);
#302=ADVANCED_FACE('',(#40),#17,.T.);
#303=ADVANCED_FACE('',(#41),#296,.F.);
#304=ADVANCED_FACE('',(#42),#18,.F.);
#305=ADVANCED_FACE('',(#43),#15,.F.);
#306=ADVANCED_FACE('',(#44,#25),#31,.T.);
#307=ADVANCED_FACE('',(#45),#19,.T.);
#308=ADVANCED_FACE('',(#46,#26),#32,.T.);
#309=ADVANCED_FACE('',(#47),#20,.T.);
#310=ADVANCED_FACE('',(#48,#27),#33,.T.);
#311=ADVANCED_FACE('',(#49),#21,.F.);
#312=ADVANCED_FACE('',(#50,#28),#34,.T.);
#313=ADVANCED_FACE('',(#51),#22,.F.);
#314=CLOSED_SHELL('',(#297,#298,#299,#300,#301,#302,#303,#304,#305,#306,
#307,#308,#309,#310,#311,#312,#313));
#315=DERIVED_UNIT_ELEMENT(#317,1.);
#316=DERIVED_UNIT_ELEMENT(#599,3.);
#317=(
MASS_UNIT()
NAMED_UNIT(*)
SI_UNIT($,.GRAM.)
);
#318=DERIVED_UNIT((#315,#316));
#319=MEASURE_REPRESENTATION_ITEM('density measure',
POSITIVE_RATIO_MEASURE(8.),#318);
#320=PROPERTY_DEFINITION_REPRESENTATION(#325,#322);
#321=PROPERTY_DEFINITION_REPRESENTATION(#326,#323);
#322=REPRESENTATION('material name',(#324),#596);
#323=REPRESENTATION('density',(#319),#596);
#324=DESCRIPTIVE_REPRESENTATION_ITEM('Stainless Steel, Austenitic',
'Stainless Steel, Austenitic');
#325=PROPERTY_DEFINITION('material property','material name',#606);
#326=PROPERTY_DEFINITION('material property','density of part',#606);
#327=DATE_TIME_ROLE('creation_date');
#328=APPLIED_DATE_AND_TIME_ASSIGNMENT(#329,#327,(#606));
#329=DATE_AND_TIME(#330,#331);
#330=CALENDAR_DATE(2014,1,10);
#331=LOCAL_TIME(9,2,29.,#332);
#332=COORDINATED_UNIVERSAL_TIME_OFFSET(0,0,.BEHIND.);
#333=AXIS2_PLACEMENT_3D('placement',#499,#385,#386);
#334=AXIS2_PLACEMENT_3D('',#500,#387,#388);
#335=AXIS2_PLACEMENT_3D('',#503,#389,#390);
#336=AXIS2_PLACEMENT_3D('',#504,#391,#392);
#337=AXIS2_PLACEMENT_3D('',#507,#394,#395);
#338=AXIS2_PLACEMENT_3D('',#508,#396,#397);
#339=AXIS2_PLACEMENT_3D('',#511,#398,#399);
#340=AXIS2_PLACEMENT_3D('',#512,#400,#401);
#341=AXIS2_PLACEMENT_3D('',#513,#402,#403);
#342=AXIS2_PLACEMENT_3D('',#516,#404,#405);
#343=AXIS2_PLACEMENT_3D('',#518,#406,#407);
#344=AXIS2_PLACEMENT_3D('',#519,#408,#409);
#345=AXIS2_PLACEMENT_3D('',#521,#411,#412);
#346=AXIS2_PLACEMENT_3D('',#523,#413,#414);
#347=AXIS2_PLACEMENT_3D('',#527,#416,#417);
#348=AXIS2_PLACEMENT_3D('',#528,#418,#419);
#349=AXIS2_PLACEMENT_3D('',#529,#420,#421);
#350=AXIS2_PLACEMENT_3D('',#531,#422,#423);
#351=AXIS2_PLACEMENT_3D('',#532,#424,#425);
#352=AXIS2_PLACEMENT_3D('',#536,#427,#428);
#353=AXIS2_PLACEMENT_3D('',#538,#429,#430);
#354=AXIS2_PLACEMENT_3D('',#539,#431,#432);
#355=AXIS2_PLACEMENT_3D('',#540,#433,#434);
#356=AXIS2_PLACEMENT_3D('',#543,#435,#436);
#357=AXIS2_PLACEMENT_3D('',#544,#437,#438);
#358=AXIS2_PLACEMENT_3D('',#546,#440,#441);
#359=AXIS2_PLACEMENT_3D('',#550,#443,#444);
#360=AXIS2_PLACEMENT_3D('',#551,#445,#446);
#361=AXIS2_PLACEMENT_3D('',#552,#447,#448);
#362=AXIS2_PLACEMENT_3D('',#553,#449,#450);
#363=AXIS2_PLACEMENT_3D('',#554,#451,#452);
#364=AXIS2_PLACEMENT_3D('',#557,#453,#454);
#365=AXIS2_PLACEMENT_3D('',#558,#455,#456);
#366=AXIS2_PLACEMENT_3D('',#559,#457,#458);
#367=AXIS2_PLACEMENT_3D('',#562,#459,#460);
#368=AXIS2_PLACEMENT_3D('',#563,#461,#462);
#369=AXIS2_PLACEMENT_3D('',#565,#464,#465);
#370=AXIS2_PLACEMENT_3D('',#568,#466,#467);
#371=AXIS2_PLACEMENT_3D('',#569,#468,#469);
#372=AXIS2_PLACEMENT_3D('',#570,#470,#471);
#373=AXIS2_PLACEMENT_3D('',#573,#472,#473);
#374=AXIS2_PLACEMENT_3D('',#574,#474,#475);
#375=AXIS2_PLACEMENT_3D('',#576,#477,#478);
#376=AXIS2_PLACEMENT_3D('',#579,#479,#480);
#377=AXIS2_PLACEMENT_3D('',#580,#481,#482);
#378=AXIS2_PLACEMENT_3D('',#581,#483,#484);
#379=AXIS2_PLACEMENT_3D('',#585,#486,#487);
#380=AXIS2_PLACEMENT_3D('',#586,#488,#489);
#381=AXIS2_PLACEMENT_3D('',#587,#490,#491);
#382=AXIS2_PLACEMENT_3D('',#590,#492,#493);
#383=AXIS2_PLACEMENT_3D('',#591,#494,#495);
#384=AXIS2_PLACEMENT_3D('',#592,#496,#497);
#385=DIRECTION('axis',(0.,0.,1.));
#386=DIRECTION('refdir',(1.,0.,0.));
#387=DIRECTION('center_axis',(0.,1.,0.));
#388=DIRECTION('ref_axis',(1.,0.,0.));
#389=DIRECTION('center_axis',(0.,-1.,0.));
#390=DIRECTION('ref_axis',(1.,0.,0.));
#391=DIRECTION('center_axis',(0.,-1.,0.));
#392=DIRECTION('ref_axis',(1.,0.,0.));
#393=DIRECTION('',(0.707106781186546,-0.707106781186549,-8.65956056235492E-17));
#394=DIRECTION('center_axis',(0.,1.,0.));
#395=DIRECTION('ref_axis',(1.,0.,0.));
#396=DIRECTION('center_axis',(0.,-1.,0.));
#397=DIRECTION('ref_axis',(0.,0.,-1.));
#398=DIRECTION('center_axis',(0.,1.,0.));
#399=DIRECTION('ref_axis',(1.,0.,0.));
#400=DIRECTION('center_axis',(0.,1.,0.));
#401=DIRECTION('ref_axis',(1.,0.,0.));
#402=DIRECTION('center_axis',(0.,1.,0.));
#403=DIRECTION('ref_axis',(-1.,0.,0.));
#404=DIRECTION('center_axis',(0.,1.,0.));
#405=DIRECTION('ref_axis',(1.,0.,0.));
#406=DIRECTION('center_axis',(0.,1.,0.));
#407=DIRECTION('ref_axis',(1.,0.,0.));
#408=DIRECTION('center_axis',(0.,1.,0.));
#409=DIRECTION('ref_axis',(1.,0.,0.));
#410=DIRECTION('',(0.,-1.,0.));
#411=DIRECTION('center_axis',(0.,-1.,0.));
#412=DIRECTION('ref_axis',(1.,0.,0.));
#413=DIRECTION('center_axis',(0.,-1.,0.));
#414=DIRECTION('ref_axis',(1.,0.,0.));
#415=DIRECTION('',(-0.707106781186554,-0.707106781186541,8.65956056235501E-17));
#416=DIRECTION('center_axis',(0.,1.,0.));
#417=DIRECTION('ref_axis',(1.,0.,0.));
#418=DIRECTION('center_axis',(0.,1.,0.));
#419=DIRECTION('ref_axis',(1.,0.,0.));
#420=DIRECTION('center_axis',(0.,1.,0.));
#421=DIRECTION('ref_axis',(0.,0.,1.));
#422=DIRECTION('center_axis',(0.,1.,0.));
#423=DIRECTION('ref_axis',(1.,0.,0.));
#424=DIRECTION('center_axis',(0.,1.,0.));
#425=DIRECTION('ref_axis',(-1.,0.,0.));
#426=DIRECTION('',(0.,-1.,0.));
#427=DIRECTION('center_axis',(0.,1.,0.));
#428=DIRECTION('ref_axis',(1.,0.,0.));
#429=DIRECTION('center_axis',(0.,1.,0.));
#430=DIRECTION('ref_axis',(1.,0.,0.));
#431=DIRECTION('center_axis',(0.,1.,0.));
#432=DIRECTION('ref_axis',(1.,0.,0.));
#433=DIRECTION('center_axis',(0.,1.,0.));
#434=DIRECTION('ref_axis',(1.,0.,0.));
#435=DIRECTION('center_axis',(0.,-1.,0.));
#436=DIRECTION('ref_axis',(1.,0.,0.));
#437=DIRECTION('center_axis',(0.,-1.,0.));
#438=DIRECTION('ref_axis',(1.,0.,0.));
#439=DIRECTION('',(-0.707106781186546,0.707106781186549,-8.65956056235491E-17));
#440=DIRECTION('center_axis',(0.,1.,0.));
#441=DIRECTION('ref_axis',(-1.,0.,0.));
#442=DIRECTION('',(0.,-1.,0.));
#443=DIRECTION('center_axis',(0.,1.,0.));
#444=DIRECTION('ref_axis',(1.,0.,0.));
#445=DIRECTION('center_axis',(0.,1.,0.));
#446=DIRECTION('ref_axis',(1.,0.,0.));
#447=DIRECTION('center_axis',(0.,1.,0.));
#448=DIRECTION('ref_axis',(0.,0.,1.));
#449=DIRECTION('center_axis',(-1.,0.,1.22464679914735E-16));
#450=DIRECTION('ref_axis',(-1.22464679914735E-16,0.,-1.));
#451=DIRECTION('center_axis',(0.,1.,0.));
#452=DIRECTION('ref_axis',(0.,0.,1.));
#453=DIRECTION('center_axis',(0.,1.,0.));
#454=DIRECTION('ref_axis',(1.,0.,0.));
#455=DIRECTION('center_axis',(0.,1.,0.));
#456=DIRECTION('ref_axis',(1.,0.,0.));
#457=DIRECTION('center_axis',(0.,1.,0.));
#458=DIRECTION('ref_axis',(-1.,0.,0.));
#459=DIRECTION('center_axis',(0.,1.,0.));
#460=DIRECTION('ref_axis',(1.,0.,0.));
#461=DIRECTION('center_axis',(0.,1.,0.));
#462=DIRECTION('ref_axis',(1.,0.,0.));
#463=DIRECTION('',(0.,-1.,0.));
#464=DIRECTION('center_axis',(0.,1.,0.));
#465=DIRECTION('ref_axis',(0.,0.,1.));
#466=DIRECTION('center_axis',(0.,1.,0.));
#467=DIRECTION('ref_axis',(1.,0.,0.));
#468=DIRECTION('center_axis',(0.,1.,0.));
#469=DIRECTION('ref_axis',(1.,0.,0.));
#470=DIRECTION('center_axis',(0.,1.,0.));
#471=DIRECTION('ref_axis',(-1.,0.,0.));
#472=DIRECTION('center_axis',(0.,1.,0.));
#473=DIRECTION('ref_axis',(1.,0.,0.));
#474=DIRECTION('center_axis',(0.,1.,0.));
#475=DIRECTION('ref_axis',(1.,0.,0.));
#476=DIRECTION('',(0.,-1.,0.));
#477=DIRECTION('center_axis',(0.,1.,0.));
#478=DIRECTION('ref_axis',(0.,0.,1.));
#479=DIRECTION('center_axis',(0.,1.,0.));
#480=DIRECTION('ref_axis',(1.,0.,0.));
#481=DIRECTION('center_axis',(0.,1.,0.));
#482=DIRECTION('ref_axis',(1.,0.,0.));
#483=DIRECTION('center_axis',(0.,1.,0.));
#484=DIRECTION('ref_axis',(-1.,0.,0.));
#485=DIRECTION('',(0.,-1.,0.));
#486=DIRECTION('center_axis',(0.,1.,0.));
#487=DIRECTION('ref_axis',(1.,0.,0.));
#488=DIRECTION('center_axis',(0.,1.,0.));
#489=DIRECTION('ref_axis',(1.,0.,0.));
#490=DIRECTION('center_axis',(0.,-1.,0.));
#491=DIRECTION('ref_axis',(0.,0.,-1.));
#492=DIRECTION('center_axis',(0.,1.,0.));
#493=DIRECTION('ref_axis',(1.,0.,0.));
#494=DIRECTION('center_axis',(0.,1.,0.));
#495=DIRECTION('ref_axis',(1.,0.,0.));
#496=DIRECTION('center_axis',(0.,1.,0.));
#497=DIRECTION('ref_axis',(-1.,0.,0.));
#498=DIRECTION('',(0.,-1.,0.));
#499=CARTESIAN_POINT('',(0.,0.,0.));
#500=CARTESIAN_POINT('Origin',(0.,0.25,0.));
#501=CARTESIAN_POINT('',(-55.,0.5,-6.73555739531044E-15));
#502=CARTESIAN_POINT('',(55.,0.5,-6.73555739531044E-15));
#503=CARTESIAN_POINT('Origin',(0.,0.5,0.));
#504=CARTESIAN_POINT('Origin',(0.,0.5,0.));
#505=CARTESIAN_POINT('',(-54.5,0.,6.67432505535308E-15));
#506=CARTESIAN_POINT('',(-54.75,0.25,6.70494122533176E-15));
#507=CARTESIAN_POINT('Origin',(0.,0.,0.));
#508=CARTESIAN_POINT('Origin',(-55.,0.,0.));
#509=CARTESIAN_POINT('',(-41.5,0.,0.));
#510=CARTESIAN_POINT('',(41.5,0.,-5.08228421646152E-15));
#511=CARTESIAN_POINT('Origin',(0.,0.,0.));
#512=CARTESIAN_POINT('Origin',(0.,0.,0.));
#513=CARTESIAN_POINT('Origin',(0.,1.75107788878125,0.));
#514=CARTESIAN_POINT('',(-55.,3.50215577756249,0.));
#515=CARTESIAN_POINT('',(55.,3.50215577756249,-6.73555739531044E-15));
#516=CARTESIAN_POINT('Origin',(0.,3.50215577756249,0.));
#517=CARTESIAN_POINT('',(-6.73555739531044E-15,3.50215577756249,-55.));
#518=CARTESIAN_POINT('Origin',(0.,3.50215577756249,0.));
#519=CARTESIAN_POINT('Origin',(0.,3.50215577756249,0.));
#520=CARTESIAN_POINT('',(55.,1.75107788878125,-6.73555739531044E-15));
#521=CARTESIAN_POINT('Origin',(0.,11.75,0.));
#522=CARTESIAN_POINT('',(-54.5,12.,-6.67432505535308E-15));
#523=CARTESIAN_POINT('Origin',(0.,12.,0.));
#524=CARTESIAN_POINT('',(-55.,11.5,6.73555739531044E-15));
#525=CARTESIAN_POINT('',(-54.75,11.75,6.70494122533176E-15));
#526=CARTESIAN_POINT('',(55.,11.5,-6.73555739531044E-15));
#527=CARTESIAN_POINT('Origin',(0.,11.5,0.));
#528=CARTESIAN_POINT('Origin',(0.,11.5,0.));
#529=CARTESIAN_POINT('Origin',(-52.5,12.,0.));
#530=CARTESIAN_POINT('',(-53.,12.,6.49062803548097E-15));
#531=CARTESIAN_POINT('Origin',(0.,12.,0.));
#532=CARTESIAN_POINT('Origin',(0.,9.24892211121876,0.));
#533=CARTESIAN_POINT('',(55.,6.49784422243751,-6.73555739531044E-15));
#534=CARTESIAN_POINT('',(55.,9.24892211121876,-6.73555739531044E-15));
#535=CARTESIAN_POINT('',(-6.73555739531044E-15,6.49784422243751,-55.));
#536=CARTESIAN_POINT('Origin',(0.,6.49784422243751,0.));
#537=CARTESIAN_POINT('',(-55.,6.49784422243751,0.));
#538=CARTESIAN_POINT('Origin',(0.,6.49784422243751,0.));
#539=CARTESIAN_POINT('Origin',(0.,6.49784422243751,0.));
#540=CARTESIAN_POINT('Origin',(0.,11.75,0.));
#541=CARTESIAN_POINT('',(-52.5,11.5,-6.4293956955236E-15));
#542=CARTESIAN_POINT('',(52.5,11.5,-6.4293956955236E-15));
#543=CARTESIAN_POINT('Origin',(0.,11.5,0.));
#544=CARTESIAN_POINT('Origin',(0.,11.5,0.));
#545=CARTESIAN_POINT('',(-52.75,11.75,-6.46001186550229E-15));
#546=CARTESIAN_POINT('Origin',(0.,11.,0.));
#547=CARTESIAN_POINT('',(52.5,9.99999999999999,-6.4293956955236E-15));
#548=CARTESIAN_POINT('',(52.5,11.,-6.4293956955236E-15));
#549=CARTESIAN_POINT('',(-52.5,9.99999999999999,0.));
#550=CARTESIAN_POINT('Origin',(0.,9.99999999999999,0.));
#551=CARTESIAN_POINT('Origin',(0.,9.99999999999999,0.));
#552=CARTESIAN_POINT('Origin',(0.,5.,0.));
#553=CARTESIAN_POINT('Origin',(-6.72571235822733E-15,5.,-54.9196091714773));
#554=CARTESIAN_POINT('Origin',(-46.5,9.99999999999999,0.));
#555=CARTESIAN_POINT('',(-46.5,9.99999999999999,0.));
#556=CARTESIAN_POINT('',(46.5,9.99999999999999,-5.69460761603519E-15));
#557=CARTESIAN_POINT('Origin',(0.,9.99999999999999,0.));
#558=CARTESIAN_POINT('Origin',(0.,9.99999999999999,0.));
#559=CARTESIAN_POINT('Origin',(0.,11.,0.));
#560=CARTESIAN_POINT('',(-46.5,12.,0.));
#561=CARTESIAN_POINT('',(46.5,12.,-5.69460761603519E-15));
#562=CARTESIAN_POINT('Origin',(0.,12.,0.));
#563=CARTESIAN_POINT('Origin',(0.,12.,0.));
#564=CARTESIAN_POINT('',(46.5,11.,-5.69460761603519E-15));
#565=CARTESIAN_POINT('Origin',(-38.1,12.,0.));
#566=CARTESIAN_POINT('',(-38.1,12.,0.));
#567=CARTESIAN_POINT('',(38.1,12.,-4.66590430475142E-15));
#568=CARTESIAN_POINT('Origin',(0.,12.,0.));
#569=CARTESIAN_POINT('Origin',(0.,12.,0.));
#570=CARTESIAN_POINT('Origin',(0.,56.,0.));
#571=CARTESIAN_POINT('',(-38.1,100.,0.));
#572=CARTESIAN_POINT('',(38.1,100.,-4.66590430475142E-15));
#573=CARTESIAN_POINT('Origin',(0.,100.,0.));
#574=CARTESIAN_POINT('Origin',(0.,100.,0.));
#575=CARTESIAN_POINT('',(38.1,56.,-4.66590430475142E-15));
#576=CARTESIAN_POINT('Origin',(-35.,100.,0.));
#577=CARTESIAN_POINT('',(-35.,100.,0.));
#578=CARTESIAN_POINT('',(35.,100.,-4.28626379701574E-15));
#579=CARTESIAN_POINT('Origin',(0.,100.,0.));
#580=CARTESIAN_POINT('Origin',(0.,100.,0.));
#581=CARTESIAN_POINT('Origin',(0.,52.3,0.));
#582=CARTESIAN_POINT('',(35.,4.6,-4.28626379701574E-15));
#583=CARTESIAN_POINT('',(35.,52.3,-4.28626379701574E-15));
#584=CARTESIAN_POINT('',(-35.,4.6,0.));
#585=CARTESIAN_POINT('Origin',(0.,4.6,0.));
#586=CARTESIAN_POINT('Origin',(0.,4.6,0.));
#587=CARTESIAN_POINT('Origin',(-41.5,4.6,0.));
#588=CARTESIAN_POINT('',(-41.5,4.6,0.));
#589=CARTESIAN_POINT('',(41.5,4.6,-5.08228421646152E-15));
#590=CARTESIAN_POINT('Origin',(0.,4.6,0.));
#591=CARTESIAN_POINT('Origin',(0.,4.6,0.));
#592=CARTESIAN_POINT('Origin',(0.,2.3,0.));
#593=CARTESIAN_POINT('',(41.5,2.3,-5.08228421646152E-15));
#594=UNCERTAINTY_MEASURE_WITH_UNIT(LENGTH_MEASURE(0.01),#598,
'DISTANCE_ACCURACY_VALUE',
'Maximum model space distance between geometric entities at asserted c
onnectivities');
#595=UNCERTAINTY_MEASURE_WITH_UNIT(LENGTH_MEASURE(0.01),#598,
'DISTANCE_ACCURACY_VALUE',
'Maximum model space distance between geometric entities at asserted c
onnectivities');
#596=(
GEOMETRIC_REPRESENTATION_CONTEXT(3)
GLOBAL_UNCERTAINTY_ASSIGNED_CONTEXT((#594))
GLOBAL_UNIT_ASSIGNED_CONTEXT((#598,#601,#600))
REPRESENTATION_CONTEXT('','3D')
);
#597=(
GEOMETRIC_REPRESENTATION_CONTEXT(3)
GLOBAL_UNCERTAINTY_ASSIGNED_CONTEXT((#595))
GLOBAL_UNIT_ASSIGNED_CONTEXT((#598,#601,#600))
REPRESENTATION_CONTEXT('','3D')
);
#598=(
LENGTH_UNIT()
NAMED_UNIT(*)
SI_UNIT(.MILLI.,.METRE.)
);
#599=(
LENGTH_UNIT()
NAMED_UNIT(*)
SI_UNIT(.CENTI.,.METRE.)
);
#600=(
NAMED_UNIT(*)
SI_UNIT($,.STERADIAN.)
SOLID_ANGLE_UNIT()
);
#601=(
NAMED_UNIT(*)
PLANE_ANGLE_UNIT()
SI_UNIT($,.RADIAN.)
);
#602=SHAPE_DEFINITION_REPRESENTATION(#603,#604);
#603=PRODUCT_DEFINITION_SHAPE('',$,#606);
#604=SHAPE_REPRESENTATION('',(#333),#596);
#605=PRODUCT_DEFINITION_CONTEXT('part definition',#610,'design');
#606=PRODUCT_DEFINITION('FL-HN80LF','FL-HN80LF',#607,#605);
#607=PRODUCT_DEFINITION_FORMATION('',$,#612);
#608=PRODUCT_RELATED_PRODUCT_CATEGORY('FL-HN80LF','FL-HN80LF',(#612));
#609=APPLICATION_PROTOCOL_DEFINITION('international standard',
'automotive_design',2009,#610);
#610=APPLICATION_CONTEXT(
'Core Data for Automotive Mechanical Design Process');
#611=PRODUCT_CONTEXT('part definition',#610,'mechanical');
#612=PRODUCT('FL-HN80LF','FL-HN80LF',$,(#611));
#613=PRESENTATION_STYLE_ASSIGNMENT((#614));
#614=SURFACE_STYLE_USAGE(.BOTH.,#615);
#615=SURFACE_SIDE_STYLE('',(#616));
#616=SURFACE_STYLE_FILL_AREA(#617);
#617=FILL_AREA_STYLE('',(#618));
#618=FILL_AREA_STYLE_COLOUR('',#619);
#619=COLOUR_RGB('',0.745098039215686,0.737254901960784,0.729411764705882);
ENDSEC;
END-ISO-10303-21;
